  0
SECTION
  2
HEADER
  9
$ACADVER
  1
AC1015
  9
$ACADMAINTVER
 70
     6
  9
$DWGCODEPAGE
  3
ANSI_1252
  9
$INSBASE
 10
0.0
 20
0.0
 30
0.0
  9
$EXTMIN
 10
-70.2154938851
 20
-106.8573032049
 30
0.0
  9
$EXTMAX
 10
70.7845061149
 20
1357.6475392745
 30
0.0
  9
$LIMMIN
 10
0.0
 20
0.0
  9
$LIMMAX
 10
420.0
 20
297.0
  9
$ORTHOMODE
 70
     0
  9
$REGENMODE
 70
     1
  9
$FILLMODE
 70
     1
  9
$QTEXTMODE
 70
     0
  9
$MIRRTEXT
 70
     1
  9
$LTSCALE
 40
1.0
  9
$ATTMODE
 70
     1
  9
$TEXTSIZE
 40
3.5
  9
$TRACEWID
 40
1.0
  9
$TEXTSTYLE
  7
Standard
  9
$CLAYER
  8
0
  9
$CELTYPE
  6
ByLayer
  9
$CECOLOR
 62
   256
  9
$CELTSCALE
 40
1.0
  9
$DISPSILH
 70
     0
  9
$DIMSCALE
 40
1.0
  9
$DIMASZ
 40
3.302
  9
$DIMEXO
 40
1.0
  9
$DIMDLI
 40
3.75
  9
$DIMRND
 40
0.0
  9
$DIMDLE
 40
0.0
  9
$DIMEXE
 40
1.0
  9
$DIMTP
 40
0.0
  9
$DIMTM
 40
0.0
  9
$DIMTXT
 40
3.5
  9
$DIMCEN
 40
2.5
  9
$DIMTSZ
 40
0.0
  9
$DIMTOL
 70
     0
  9
$DIMLIM
 70
     0
  9
$DIMTIH
 70
     1
  9
$DIMTOH
 70
     1
  9
$DIMSE1
 70
     0
  9
$DIMSE2
 70
     0
  9
$DIMTAD
 70
     1
  9
$DIMZIN
 70
     0
  9
$DIMBLK
  1

  9
$DIMASO
 70
     1
  9
$DIMSHO
 70
     1
  9
$DIMPOST
  1

  9
$DIMAPOST
  1

  9
$DIMALT
 70
     0
  9
$DIMALTD
 70
     3
  9
$DIMALTF
 40
0.0393700787
  9
$DIMLFAC
 40
1.0
  9
$DIMTOFL
 70
     1
  9
$DIMTVP
 40
0.0
  9
$DIMTIX
 70
     0
  9
$DIMSOXD
 70
     0
  9
$DIMSAH
 70
     0
  9
$DIMBLK1
  1

  9
$DIMBLK2
  1

  9
$DIMSTYLE
  2
ISO-25
  9
$DIMCLRD
 70
     0
  9
$DIMCLRE
 70
     0
  9
$DIMCLRT
 70
     0
  9
$DIMTFAC
 40
1.0
  9
$DIMGAP
 40
1.524
  9
$DIMJUST
 70
     0
  9
$DIMSD1
 70
     0
  9
$DIMSD2
 70
     0
  9
$DIMTOLJ
 70
     0
  9
$DIMTZIN
 70
     0
  9
$DIMALTZ
 70
     0
  9
$DIMALTTZ
 70
     0
  9
$DIMUPT
 70
     0
  9
$DIMDEC
 70
     2
  9
$DIMTDEC
 70
     2
  9
$DIMALTU
 70
     2
  9
$DIMALTTD
 70
     3
  9
$DIMTXSTY
  7
Standard
  9
$DIMAUNIT
 70
     0
  9
$DIMADEC
 70
     2
  9
$DIMALTRND
 40
0.0
  9
$DIMAZIN
 70
     0
  9
$DIMDSEP
 70
    44
  9
$DIMATFIT
 70
     3
  9
$DIMFRAC
 70
     0
  9
$DIMLDRBLK
  1

  9
$DIMLUNIT
 70
     2
  9
$DIMLWD
 70
    -2
  9
$DIMLWE
 70
    -2
  9
$DIMTMOVE
 70
     0
  9
$LUNITS
 70
     2
  9
$LUPREC
 70
     2
  9
$SKETCHINC
 40
1.0
  9
$FILLETRAD
 40
10.0
  9
$AUNITS
 70
     0
  9
$AUPREC
 70
     2
  9
$MENU
  1
.
  9
$ELEVATION
 40
0.0
  9
$PELEVATION
 40
0.0
  9
$THICKNESS
 40
0.0
  9
$LIMCHECK
 70
     0
  9
$CHAMFERA
 40
0.0
  9
$CHAMFERB
 40
0.0
  9
$CHAMFERC
 40
0.0
  9
$CHAMFERD
 40
0.0
  9
$SKPOLY
 70
     0
  9
$TDCREATE
 40
2456967.686328947
  9
$TDUCREATE
 40
2456967.686328947
  9
$TDUPDATE
 40
2456967.686485521
  9
$TDUUPDATE
 40
2456967.686485521
  9
$TDINDWG
 40
0.0000000116
  9
$TDUSRTIMER
 40
0.0000000116
  9
$USRTIMER
 70
     1
  9
$ANGBASE
 50
0.0
  9
$ANGDIR
 70
     0
  9
$PDMODE
 70
     0
  9
$PDSIZE
 40
-1.0
  9
$PLINEWID
 40
0.0
  9
$SPLFRAME
 70
     0
  9
$SPLINETYPE
 70
     6
  9
$SPLINESEGS
 70
     8
  9
$HANDSEED
  5
5D7
  9
$SURFTAB1
 70
     6
  9
$SURFTAB2
 70
     6
  9
$SURFTYPE
 70
     6
  9
$SURFU
 70
     6
  9
$SURFV
 70
     6
  9
$UCSBASE
  2

  9
$UCSNAME
  2

  9
$UCSORG
 10
0.0
 20
0.0
 30
0.0
  9
$UCSXDIR
 10
1.0
 20
0.0
 30
0.0
  9
$UCSYDIR
 10
0.0
 20
1.0
 30
0.0
  9
$UCSORTHOREF
  2

  9
$UCSORTHOVIEW
 70
     0
  9
$UCSORGTOP
 10
0.0
 20
0.0
 30
0.0
  9
$UCSORGBOTTOM
 10
0.0
 20
0.0
 30
0.0
  9
$UCSORGLEFT
 10
0.0
 20
0.0
 30
0.0
  9
$UCSORGRIGHT
 10
0.0
 20
0.0
 30
0.0
  9
$UCSORGFRONT
 10
0.0
 20
0.0
 30
0.0
  9
$UCSORGBACK
 10
0.0
 20
0.0
 30
0.0
  9
$PUCSBASE
  2

  9
$PUCSNAME
  2

  9
$PUCSORG
 10
0.0
 20
0.0
 30
0.0
  9
$PUCSXDIR
 10
1.0
 20
0.0
 30
0.0
  9
$PUCSYDIR
 10
0.0
 20
1.0
 30
0.0
  9
$PUCSORTHOREF
  2

  9
$PUCSORTHOVIEW
 70
     0
  9
$PUCSORGTOP
 10
0.0
 20
0.0
 30
0.0
  9
$PUCSORGBOTTOM
 10
0.0
 20
0.0
 30
0.0
  9
$PUCSORGLEFT
 10
0.0
 20
0.0
 30
0.0
  9
$PUCSORGRIGHT
 10
0.0
 20
0.0
 30
0.0
  9
$PUCSORGFRONT
 10
0.0
 20
0.0
 30
0.0
  9
$PUCSORGBACK
 10
0.0
 20
0.0
 30
0.0
  9
$USERI1
 70
     0
  9
$USERI2
 70
     0
  9
$USERI3
 70
     0
  9
$USERI4
 70
     0
  9
$USERI5
 70
     0
  9
$USERR1
 40
0.0
  9
$USERR2
 40
0.0
  9
$USERR3
 40
0.0
  9
$USERR4
 40
0.0
  9
$USERR5
 40
0.0
  9
$WORLDVIEW
 70
     1
  9
$SHADEDGE
 70
     3
  9
$SHADEDIF
 70
    70
  9
$TILEMODE
 70
     1
  9
$MAXACTVP
 70
    64
  9
$PINSBASE
 10
0.0
 20
0.0
 30
0.0
  9
$PLIMCHECK
 70
     0
  9
$PEXTMIN
 10
-62.1325918541
 20
-106.8573032049
 30
0.0
  9
$PEXTMAX
 10
78.8674081459
 20
1357.6475392745
 30
0.0
  9
$PLIMMIN
 10
-212.3382167237
 20
-163.184412531
  9
$PLIMMAX
 10
2018.215312591
 20
1413.9746486007
  9
$UNITMODE
 70
     0
  9
$VISRETAIN
 70
     1
  9
$PLINEGEN
 70
     0
  9
$PSLTSCALE
 70
     1
  9
$TREEDEPTH
 70
  3020
  9
$CMLSTYLE
  2
Standard
  9
$CMLJUST
 70
     0
  9
$CMLSCALE
 40
20.0
  9
$PROXYGRAPHICS
 70
     1
  9
$MEASUREMENT
 70
     1
  9
$CELWEIGHT
370
    -1
  9
$ENDCAPS
280
     0
  9
$JOINSTYLE
280
     0
  9
$LWDISPLAY
290
     1
  9
$INSUNITS
 70
     4
  9
$HYPERLINKBASE
  1

  9
$STYLESHEET
  1

  9
$XEDIT
290
     1
  9
$CEPSNTYPE
380
     0
  9
$PSTYLEMODE
290
     1
  9
$FINGERPRINTGUID
  2
{E4F81553-9C63-4E28-BE10-957DC2A06A3A}
  9
$VERSIONGUID
  2
{FAEB1C32-E019-11D5-929B-00C0DF256EC4}
  9
$EXTNAMES
290
     1
  9
$PSVPSCALE
 40
0.0
  9
$OLESTARTUP
290
     0
  0
ENDSEC
  0
SECTION
  2
CLASSES
  0
CLASS
  1
ACDBDICTIONARYWDFLT
  2
AcDbDictionaryWithDefault
  3
ObjectDBX Classes
 90
        0
280
     0
281
     0
  0
CLASS
  1
VISUALSTYLE
  2
AcDbVisualStyle
  3
ObjectDBX Classes
 90
     4095
280
     0
281
     0
  0
CLASS
  1
MATERIAL
  2
AcDbMaterial
  3
ObjectDBX Classes
 90
     1153
280
     0
281
     0
  0
CLASS
  1
SCALE
  2
AcDbScale
  3
ObjectDBX Classes
 90
     1153
280
     0
281
     0
  0
CLASS
  1
SUN
  2
AcDbSun
  3
SCENEOE
 90
     1153
280
     0
281
     0
  0
CLASS
  1
ACDBPLACEHOLDER
  2
AcDbPlaceHolder
  3
ObjectDBX Classes
 90
        0
280
     0
281
     0
  0
CLASS
  1
LAYOUT
  2
AcDbLayout
  3
ObjectDBX Classes
 90
        0
280
     0
281
     0
  0
ENDSEC
  0
SECTION
  2
TABLES
  0
TABLE
  2
VPORT
  5
8
330
0
100
AcDbSymbolTable
 70
     1
  0
VPORT
  5
29
330
8
100
AcDbSymbolTableRecord
100
AcDbViewportTableRecord
  2
*Active
 70
     0
 10
0.0
 20
0.0
 11
1.0
 21
1.0
 12
0.2845061149
 22
625.3951180348
 13
0.0
 23
0.0
 14
10.0
 24
10.0
 15
10.0
 25
10.0
 16
0.0
 26
0.0
 36
1.0
 17
0.0
 27
0.0
 37
0.0
 40
1493.794939329
 41
0.096278275
 42
50.0
 43
0.0
 44
0.0
 50
0.0
 51
0.0
 71
     0
 72
   100
 73
     1
 74
     3
 75
     0
 76
     0
 77
     0
 78
     0
281
     0
 65
     1
110
0.0
120
0.0
130
0.0
111
1.0
121
0.0
131
0.0
112
0.0
122
1.0
132
0.0
 79
     0
146
0.0
  0
ENDTAB
  0
TABLE
  2
LTYPE
  5
5
330
0
100
AcDbSymbolTable
 70
     6
  0
LTYPE
  5
14
330
5
100
AcDbSymbolTableRecord
100
AcDbLinetypeTableRecord
  2
ByBlock
 70
     0
  3

 72
    65
 73
     0
 40
0.0
  0
LTYPE
  5
15
330
5
100
AcDbSymbolTableRecord
100
AcDbLinetypeTableRecord
  2
ByLayer
 70
     0
  3

 72
    65
 73
     0
 40
0.0
  0
LTYPE
  5
16
330
5
100
AcDbSymbolTableRecord
100
AcDbLinetypeTableRecord
  2
Continuous
 70
     0
  3
Solid line
 72
    65
 73
     0
 40
0.0
  0
LTYPE
  5
6A
330
5
100
AcDbSymbolTableRecord
100
AcDbLinetypeTableRecord
  2
HIDDEN
 70
     0
  3
Hidden __ __ __ __ __ __ __ __ __ __ __ __ __ __
 72
    65
 73
     2
 40
1.905
 49
1.27
 74
     0
 49
-0.635
 74
     0
  0
LTYPE
  5
6B
330
5
100
AcDbSymbolTableRecord
100
AcDbLinetypeTableRecord
  2
PHANTOM
 70
     0
  3
Phantom ______  __  __  ______  __  __  ______
 72
    65
 73
     6
 40
12.7
 49
6.35
 74
     0
 49
-1.27
 74
     0
 49
1.27
 74
     0
 49
-1.27
 74
     0
 49
1.27
 74
     0
 49
-1.27
 74
     0
  0
LTYPE
  5
6C
330
5
100
AcDbSymbolTableRecord
100
AcDbLinetypeTableRecord
  2
CENTER
 70
     0
  3
Center ____ _ ____ _ ____ _ ____ _ ____ _ ____
 72
    65
 73
     4
 40
10.16
 49
6.35
 74
     0
 49
-1.27
 74
     0
 49
1.27
 74
     0
 49
-1.27
 74
     0
  0
LTYPE
  5
6D
330
5
100
AcDbSymbolTableRecord
100
AcDbLinetypeTableRecord
  2
CENTERX2
 70
     0
  3
Center (2x) ________  __  ________  __  _____
 72
    65
 73
     4
 40
20.32
 49
12.7
 74
     0
 49
-2.54
 74
     0
 49
2.54
 74
     0
 49
-2.54
 74
     0
  0
LTYPE
  5
6E
330
5
100
AcDbSymbolTableRecord
100
AcDbLinetypeTableRecord
  2
DOT2
 70
     0
  3
Dot (.5x) ........................................
 72
    65
 73
     2
 40
0.635
 49
0.0
 74
     0
 49
-0.635
 74
     0
  0
ENDTAB
  0
TABLE
  2
LAYER
  5
2
330
0
100
AcDbSymbolTable
 70
     1
  0
LAYER
  5
10
330
2
100
AcDbSymbolTableRecord
100
AcDbLayerTableRecord
  2
0
 70
     0
 62
     7
  6
Continuous
370
    -3
390
F
  0
ENDTAB
  0
TABLE
  2
STYLE
  5
3
330
0
100
AcDbSymbolTable
 70
     1
  0
STYLE
  5
11
330
3
100
AcDbSymbolTableRecord
100
AcDbTextStyleTableRecord
  2
Standard
 70
     0
 40
0.0
 41
1.0
 50
0.0
 71
     0
 42
3.5
  3
txt
  4

  0
ENDTAB
  0
TABLE
  2
VIEW
  5
6
330
0
100
AcDbSymbolTable
 70
     0
  0
ENDTAB
  0
TABLE
  2
UCS
  5
7
330
0
100
AcDbSymbolTable
 70
     0
  0
ENDTAB
  0
TABLE
  2
APPID
  5
9
330
0
100
AcDbSymbolTable
 70
     1
  0
APPID
  5
12
330
9
100
AcDbSymbolTableRecord
100
AcDbRegAppTableRecord
  2
ACAD
 70
     0
  0
ENDTAB
  0
TABLE
  2
DIMSTYLE
  5
A
330
0
100
AcDbSymbolTable
 70
     1
100
AcDbDimStyleTable
  0
DIMSTYLE
105
27
330
A
100
AcDbSymbolTableRecord
100
AcDbDimStyleTableRecord
  2
ISO-25
 70
     0
 41
2.5
 42
0.625
 43
3.75
 44
1.25
 73
     0
 74
     0
 77
     1
 78
     8
140
2.5
141
2.5
143
0.0393700787
147
0.625
171
     3
172
     1
178
     0
271
     2
272
     2
274
     3
278
    44
283
     0
284
     8
340
11
  0
ENDTAB
  0
TABLE
  2
BLOCK_RECORD
  5
1
330
0
100
AcDbSymbolTable
 70
     2
  0
BLOCK_RECORD
  5
1F
330
1
100
AcDbSymbolTableRecord
100
AcDbBlockTableRecord
  2
*Model_Space
340
22
  0
BLOCK_RECORD
  5
1B
330
1
100
AcDbSymbolTableRecord
100
AcDbBlockTableRecord
  2
*Paper_Space
340
1E
  0
BLOCK_RECORD
  5
23
330
1
100
AcDbSymbolTableRecord
100
AcDbBlockTableRecord
  2
*Paper_Space0
340
26
  0
BLOCK_RECORD
  5
5A1
330
1
100
AcDbSymbolTableRecord
100
AcDbBlockTableRecord
  2
*Paper_Space1
340
5A2
  0
ENDTAB
  0
ENDSEC
  0
SECTION
  2
BLOCKS
  0
BLOCK
  5
20
330
1F
100
AcDbEntity
  8
0
100
AcDbBlockBegin
  2
*Model_Space
 70
     0
 10
0.0
 20
0.0
 30
0.0
  3
*Model_Space
  1
*Model_Space
  0
ENDBLK
  5
21
330
1F
100
AcDbEntity
  8
0
100
AcDbBlockEnd
  0
BLOCK
  5
1C
330
1B
100
AcDbEntity
 67
     1
  8
0
100
AcDbBlockBegin
  2
*Paper_Space
 70
     0
 10
0.0
 20
0.0
 30
0.0
  3
*Paper_Space
  1
*Paper_Space
  0
ENDBLK
  5
1D
330
1B
100
AcDbEntity
 67
     1
  8
0
100
AcDbBlockEnd
  0
BLOCK
  5
24
330
23
100
AcDbEntity
  8
0
100
AcDbBlockBegin
  2
*Paper_Space0
 70
     0
 10
0.0
 20
0.0
 30
0.0
  3
*Paper_Space0
  1
*Paper_Space0
  0
SPLINE
  5
41A
330
23
100
AcDbEntity
  8
0
  6
Continuous
 62
     7
370
    15
100
AcDbSpline
210
0.0
220
0.0
230
1.0
 70
    24
 71
     3
 72
    51
 73
    47
 74
     0
 42
0.000000001
 43
0.00000001
 40
0.0
 40
0.0
 40
0.0
 40
0.0
 40
0.0052888261898059
 40
0.0155819785461079
 40
0.0248500819758287
 40
0.0330976485604172
 40
0.0403273568298097
 40
0.0452947961575742
 40
0.0496352047900424
 40
0.0535814235736513
 40
0.057551694639609
 40
0.0615545218808315
 40
0.0798228890117968
 40
0.0984570315320806
 40
0.1317397742231198
 40
0.1650246497662568
 40
0.2046427528402858
 40
0.2442559044341547
 40
0.2838704786521136
 40
0.3369280445215626
 40
0.3899880263034041
 40
0.4430490809383101
 40
0.4961096032856078
 40
0.5411302310682686
 40
0.5861501028298673
 40
0.6311687879895657
 40
0.676185822406507
 40
0.7212018710931317
 40
0.7662207481559354
 40
0.8256492460555548
 40
0.8850769500043943
 40
0.8937927258747206
 40
0.9025084077515212
 40
0.9110687974519873
 40
0.9192512600924447
 40
0.9270541599429053
 40
0.9346052015514151
 40
0.9393276680655205
 40
0.9448793487994375
 40
0.9512603411283164
 40
0.9584708221817057
 40
0.9665110911939706
 40
0.9752159420010885
 40
0.9847223732457336
 40
0.9950314285830163
 40
1.0
 40
1.0
 40
1.0
 40
1.0
 10
-5.367408145943497
 20
86.14772358395173
 30
0.0
 10
-5.367408145943498
 20
88.25801149601264
 30
0.0
 10
-5.367408145943497
 20
94.47535723432088
 30
0.0
 10
-5.367408145943497
 20
104.4078944475007
 30
0.0
 10
-5.367408145943503
 20
115.5278954154539
 30
0.0
 10
-5.367408145943496
 20
125.4279402807331
 30
0.0
 10
-5.3674081459435
 20
133.6091048042128
 30
0.0
 10
-5.367408145943497
 20
140.2274124280878
 30
0.0
 10
-5.367408145943497
 20
145.531839242353
 30
0.0
 10
-5.367408145943497
 20
150.4371978273462
 30
0.0
 10
-5.367408145943496
 20
155.2073665578499
 30
0.0
 10
-5.367408145943501
 20
165.7089345939224
 30
0.0
 10
-5.367408145943496
 20
182.076652208977
 30
0.0
 10
-5.367408145943497
 20
210.1473855710167
 30
0.0
 10
-5.367408145943497
 20
244.2025935909929
 30
0.0
 10
-5.367408145943497
 20
286.6321022256042
 30
0.0
 10
-5.367408145943496
 20
331.6210198735429
 30
0.0
 10
-5.367408145943497
 20
379.1797924763828
 30
0.0
 10
-5.367408145943497
 20
432.124214693579
 30
0.0
 10
-5.367408145943497
 20
490.4418279594229
 30
0.0
 10
-5.367408145943496
 20
554.1135066100909
 30
0.0
 10
-5.367408145943498
 20
617.7654237604763
 30
0.0
 10
-5.367408145943498
 20
678.1971128483149
 30
0.0
 10
-5.367408145943498
 20
735.421472696868
 30
0.0
 10
-5.367408145943498
 20
789.444125099887
 30
0.0
 10
-5.367408145943497
 20
843.4824965848549
 30
0.0
 10
-5.367408145943499
 20
897.5325907653266
 30
0.0
 10
-5.367408145943497
 20
951.5825504236586
 30
0.0
 10
-5.367408145943498
 20
1011.372015585095
 30
0.0
 10
-5.367408145943497
 20
1076.894354771136
 30
0.0
 10
-5.367408145943498
 20
1127.907412522576
 30
0.0
 10
-5.367408145943498
 20
1158.652505979402
 30
0.0
 10
-5.367408145943496
 20
1169.050636263739
 30
0.0
 10
-5.367408145943498
 20
1179.236307511348
 30
0.0
 10
-5.3674081459435
 20
1189.057582360313
 30
0.0
 10
-5.367408145943499
 20
1198.475666537259
 30
0.0
 10
-5.367408145943498
 20
1206.509716546414
 30
0.0
 10
-5.367408145943498
 20
1213.643158629317
 30
0.0
 10
-5.367408145943497
 20
1220.308538443374
 30
0.0
 10
-5.367408145943498
 20
1227.969786758709
 30
0.0
 10
-5.367408145943502
 20
1236.627085446187
 30
0.0
 10
-5.367408145943498
 20
1246.214331576389
 30
0.0
 10
-5.367408145943495
 20
1256.72007099122
 30
0.0
 10
-5.3674081459435
 20
1268.132639360456
 30
0.0
 10
-5.367408145943497
 20
1278.049267135236
 30
0.0
 10
-5.367408145943498
 20
1284.160103398883
 30
0.0
 10
-5.367408145943498
 20
1286.147462226389
 30
0.0
  0
SPLINE
  5
41B
330
23
100
AcDbEntity
  8
0
  6
Continuous
 62
     7
370
    15
100
AcDbSpline
210
0.0
220
0.0
230
1.0
 70
    24
 71
     3
 72
    53
 73
    49
 74
     0
 42
0.000000001
 43
0.00000001
 40
0.0
 40
0.0
 40
0.0
 40
0.0
 40
0.0051615369118382
 40
0.0154474300823603
 40
0.0247148234857328
 40
0.0329648361548173
 40
0.0401981873539711
 40
0.0451686157523731
 40
0.0495118277699401
 40
0.0534597140443185
 40
0.0574314077657392
 40
0.0614355372925199
 40
0.0797071472996496
 40
0.0983411864922237
 40
0.1316197446349975
 40
0.164899626187599
 40
0.204519044164672
 40
0.2441376005587764
 40
0.2837538585897253
 40
0.326197562244848
 40
0.3686424774759632
 40
0.411088744668806
 40
0.4535360772412722
 40
0.4959840776942551
 40
0.5410051445594904
 40
0.5860267065879424
 40
0.6310480736840245
 40
0.6760683092459866
 40
0.7210867776087017
 40
0.7661027854645225
 40
0.8057162082479152
 40
0.845336992089718
 40
0.8849618263142254
 40
0.8936787540565693
 40
0.9023951923525667
 40
0.9109567162973189
 40
0.9191393630335044
 40
0.9269415801755018
 40
0.934489722171661
 40
0.9392081284870787
 40
0.9447554593340937
 40
0.9511318655121366
 40
0.9583377809608513
 40
0.9663741170832738
 40
0.975076874516329
 40
0.9845849555360694
 40
0.9949026571153555
 40
1.0
 40
1.0
 40
1.0
 40
1.0
 10
-11.3674081459435
 20
1286.147525036792
 30
0.0
 10
-11.3674081459435
 20
1284.082977880076
 30
0.0
 10
-11.36740814594349
 20
1277.904208184182
 30
0.0
 10
-11.3674081459435
 20
1268.015243050093
 30
0.0
 10
-11.3674081459435
 20
1256.889586285894
 30
0.0
 10
-11.3674081459435
 20
1246.984474824233
 30
0.0
 10
-11.3674081459435
 20
1238.798705107801
 30
0.0
 10
-11.3674081459435
 20
1232.176397435441
 30
0.0
 10
-11.3674081459435
 20
1226.868980288893
 30
0.0
 10
-11.3674081459435
 20
1221.961305732771
 30
0.0
 10
-11.3674081459435
 20
1217.189393016779
 30
0.0
 10
-11.3674081459435
 20
1206.685256838105
 30
0.0
 10
-11.3674081459435
 20
1190.31419982909
 30
0.0
 10
-11.3674081459435
 20
1162.233004957314
 30
0.0
 10
-11.3674081459435
 20
1128.155944356122
 30
0.0
 10
-11.3674081459435
 20
1085.697312169886
 30
0.0
 10
-11.3674081459435
 20
1040.709004543909
 30
0.0
 10
-11.3674081459435
 20
993.1791186657395
 30
0.0
 10
-11.3674081459435
 20
944.5001536849701
 30
0.0
 10
-11.3674081459435
 20
894.6707020272447
 30
0.0
 10
-11.3674081459435
 20
843.7094810366807
 30
0.0
 10
-11.3674081459435
 20
792.7583752434954
 30
0.0
 10
-11.36740814594349
 20
741.821214904265
 30
0.0
 10
-11.3674081459435
 20
689.8674675373221
 30
0.0
 10
-11.3674081459435
 20
636.8920800694209
 30
0.0
 10
-11.3674081459435
 20
582.8870458760011
 30
0.0
 10
-11.3674081459435
 20
528.8718121901554
 30
0.0
 10
-11.3674081459435
 20
474.8402570592659
 30
0.0
 10
-11.3674081459435
 20
420.7932520580028
 30
0.0
 10
-11.3674081459435
 20
368.9034786447093
 30
0.0
 10
-11.3674081459435
 20
319.1882263273284
 30
0.0
 10
-11.3674081459435
 20
271.6770423082577
 30
0.0
 10
-11.36740814594349
 20
236.5294804306159
 30
0.0
 10
-11.3674081459435
 20
213.7201888287971
 30
0.0
 10
-11.3674081459435
 20
203.3267125126552
 30
0.0
 10
-11.3674081459435
 20
193.1447572454391
 30
0.0
 10
-11.3674081459435
 20
183.326384219012
 30
0.0
 10
-11.3674081459435
 20
173.9115741289103
 30
0.0
 10
-11.3674081459435
 20
165.8813964728231
 30
0.0
 10
-11.3674081459435
 20
158.7527754755311
 30
0.0
 10
-11.36740814594351
 20
152.092621325015
 30
0.0
 10
-11.3674081459435
 20
144.4366652180753
 30
0.0
 10
-11.3674081459435
 20
135.7846423768759
 30
0.0
 10
-11.36740814594349
 20
126.2025671416695
 30
0.0
 10
-11.36740814594351
 20
115.7015201986387
 30
0.0
 10
-11.3674081459435
 20
104.2937327260979
 30
0.0
 10
-11.3674081459435
 20
94.3321415210242
 30
0.0
 10
-11.3674081459435
 20
88.18143949189906
 30
0.0
 10
-11.3674081459435
 20
86.14756684903446
 30
0.0
  0
LWPOLYLINE
  5
43C
330
23
100
AcDbEntity
  8
0
  6
Continuous
 62
     7
370
    15
100
AcDbPolyline
 90
       21
 70
   128
 43
0.0
 10
-4.4389689084
 20
1348.8108064138
 10
-4.5170427508
 20
1349.9609943483
 10
-4.9630690442
 20
1351.0318227056
 10
-5.7333876272
 20
1351.9184713454
 10
-6.7525943499
 20
1352.534148921
 10
-7.9209221569
 20
1352.8185886217
 10
-9.1240069824
 20
1352.7439475077
 10
-10.2440825012
 20
1352.3175319714
 10
-11.1715079176
 20
1351.5810825365
 10
-11.8155003699
 20
1350.6066880047
 10
-12.1130213901
 20
1349.489728902
 10
-12.0349475476
 20
1348.3395409675
 10
-11.5889212543
 20
1347.2687126101
 10
-10.8186026713
 20
1346.3820639704
 10
-9.7993959486
 20
1345.7663863948
 10
-8.6310681416
 20
1345.4819466941
 10
-7.4279833161
 20
1345.5565878081
 10
-6.3079077973
 20
1345.9830033444
 10
-5.3804823809
 20
1346.7194527793
 10
-4.7364899286
 20
1347.693847311
 10
-4.4389689084
 20
1348.8108064138
  0
SPLINE
  5
43D
330
23
100
AcDbEntity
  8
0
  6
Continuous
 62
     7
370
    15
100
AcDbSpline
210
0.0
220
0.0
230
1.0
 70
     8
 71
     3
 72
     8
 73
     4
 74
     0
 42
0.000000001
 43
0.00000001
 40
0.0
 40
0.0
 40
0.0
 40
0.0
 40
1.0
 40
1.0
 40
1.0
 40
1.0
 10
-7.683221924180704
 20
1349.583046114564
 30
0.0
 10
-7.68887066245384
 20
1349.745780541888
 30
0.0
 10
-7.694661517250511
 20
1349.907012738483
 30
0.0
 10
-7.700760052409168
 20
1350.064976489507
 30
0.0
  0
LWPOLYLINE
  5
43F
330
23
100
AcDbEntity
  8
0
  6
Continuous
 62
     7
370
    15
100
AcDbPolyline
 90
       22
 70
   128
 43
0.0
 10
-4.2930127116
 20
1348.8829151392
 10
-4.3613247097
 20
1350.0209565056
 10
-4.7774723555
 20
1351.089187876
 10
-5.5044791046
 20
1351.9926922054
 10
-6.4777472169
 20
1352.6511891692
 10
-7.6107975494
 20
1353.0061684223
 10
-8.8029536079
 20
1353.0260885002
 10
-9.9482870947
 20
1352.7091794168
 10
-10.9450301035
 20
1352.0835999346
 10
-11.7046176438
 20
1351.2049355362
 10
-12.1595570291
 20
1350.1512594091
 10
-12.2694248987
 20
1349.0161953014
 10
-12.0244590102
 20
1347.90059864
 10
-11.4464256577
 20
1346.9035950841
 10
-10.5866856414
 20
1346.1137727749
 10
-9.5216306345
 20
1345.6013108907
 10
-8.3458954484
 20
1345.4117439187
 10
-7.163949314
 20
1345.5619157163
 10
-6.0808133322
 20
1346.0384828604
 10
-5.1927288882
 20
1346.7991002687
 10
-4.5786061822
 20
1347.7761837466
 10
-4.2930127116
 20
1348.8829151392
  0
SPLINE
  5
443
330
23
100
AcDbEntity
  8
0
  6
Continuous
 62
     7
370
    15
100
AcDbSpline
210
0.0
220
0.0
230
1.0
 70
     8
 71
     3
 72
     8
 73
     4
 74
     0
 42
0.000000001
 43
0.00000001
 40
0.0
 40
0.0
 40
0.0
 40
0.0
 40
1.0
 40
1.0
 40
1.0
 40
1.0
 10
-9.18756751219026
 20
1348.388476245418
 30
0.0
 10
-9.1265255364541
 20
1348.604168396115
 30
0.0
 10
-9.063947806543842
 20
1348.819690678671
 30
0.0
 10
-8.998045189502552
 20
1349.034829062736
 30
0.0
  0
SPLINE
  5
444
330
23
100
AcDbEntity
  8
0
  6
Continuous
 62
     7
370
    15
100
AcDbSpline
210
0.0
220
0.0
230
1.0
 70
     8
 71
     3
 72
     8
 73
     4
 74
     0
 42
0.000000001
 43
0.00000001
 40
0.0
 40
0.0
 40
0.0
 40
0.0
 40
1.0
 40
1.0
 40
1.0
 40
1.0
 10
-8.868768374313206
 20
1348.021533491888
 30
0.0
 10
-8.86311963604007
 20
1348.300984118272
 30
0.0
 10
-8.8573287812434
 20
1348.581868975073
 30
0.0
 10
-8.851230246084743
 20
1348.865842785182
 30
0.0
  0
SPLINE
  5
448
330
23
100
AcDbEntity
  8
0
  6
Continuous
 62
     7
370
    15
100
AcDbSpline
210
0.0
220
0.0
230
1.0
 70
     8
 71
     3
 72
     8
 73
     4
 74
     0
 42
0.000000001
 43
0.00000001
 40
0.0
 40
0.0
 40
0.0
 40
0.0
 40
1.0
 40
1.0
 40
1.0
 40
1.0
 10
-7.459332026287125
 20
1348.23557946251
 30
0.0
 10
-7.52037400202329
 20
1348.462072365521
 30
0.0
 10
-7.582951731933543
 20
1348.688667136361
 30
0.0
 10
-7.648854348974837
 20
1348.915466313429
 30
0.0
  0
SPLINE
  5
44A
330
23
100
AcDbEntity
  8
0
  6
Continuous
 62
     7
370
    15
100
AcDbSpline
210
0.0
220
0.0
230
1.0
 70
     8
 71
     3
 72
     8
 73
     4
 74
     0
 42
0.000000001
 43
0.00000001
 40
0.0
 40
0.0
 40
0.0
 40
0.0
 40
1.0
 40
1.0
 40
1.0
 40
1.0
 10
-7.843150396620844
 20
1347.930797194339
 30
0.0
 10
-7.837501658347708
 20
1348.210247820724
 30
0.0
 10
-7.831710803551037
 20
1348.491132677525
 30
0.0
 10
-7.825612268392381
 20
1348.775106487634
 30
0.0
  0
SPLINE
  5
45B
330
23
100
AcDbEntity
  8
0
  6
Continuous
 62
     7
370
    15
100
AcDbSpline
210
0.0
220
0.0
230
1.0
 70
     8
 71
     3
 72
    16
 73
    12
 74
     0
 42
0.000000001
 43
0.00000001
 40
0.0
 40
0.0
 40
0.0
 40
0.0
 40
0.0478295489451621
 40
0.15745588919959
 40
0.267082229454022
 40
0.3767085697084679
 40
0.4863349099629373
 40
0.5959612502174398
 40
0.7055875904719822
 40
0.8152139307265709
 40
1.0
 40
1.0
 40
1.0
 40
1.0
 10
-23.35657031800672
 20
52.24753979576524
 30
0.0
 10
-23.35471816509218
 20
52.24753988193209
 30
0.0
 10
-23.34862083842856
 20
52.24754016559508
 30
0.0
 10
-23.28911749583484
 20
52.24754096979834
 30
0.0
 10
-23.1798149576296
 20
52.2475415827206
 30
0.0
 10
-23.02196976273633
 20
52.24754143906851
 30
0.0
 10
-22.81943247442135
 20
52.24753999420151
 30
0.0
 10
-22.57223106378662
 20
52.24753678583038
 30
0.0
 10
-22.28016381350639
 20
52.2475311973325
 30
0.0
 10
-21.87282721009875
 20
52.247521364718
 30
0.0
 10
-21.50945707005173
 20
52.24750874412487
 30
0.0
 10
-21.2813901214531
 20
52.2475008228902
 30
0.0
  0
SPLINE
  5
45C
330
23
100
AcDbEntity
  8
0
  6
Continuous
 62
     7
370
    15
100
AcDbSpline
210
0.0
220
0.0
230
1.0
 70
     8
 71
     3
 72
     8
 73
     4
 74
     0
 42
0.000000001
 43
0.00000001
 40
0.0
 40
0.0
 40
0.0
 40
0.0
 40
1.0
 40
1.0
 40
1.0
 40
1.0
 10
-20.79281061148063
 20
52.43027975273174
 30
0.0
 10
-20.95505076940978
 20
52.30947574728895
 30
0.0
 10
-21.1217552829058
 20
52.24748987702333
 30
0.0
 10
-21.28139012937086
 20
52.24750082290153
 30
0.0
  0
SPLINE
  5
45D
330
23
100
AcDbEntity
  8
0
  6
Continuous
 62
     7
370
    15
100
AcDbSpline
210
0.0
220
0.0
230
1.0
 70
     8
 71
     3
 72
     8
 73
     4
 74
     0
 42
0.000000001
 43
0.00000001
 40
0.868692447766555
 40
0.868692447766555
 40
0.868692447766555
 40
0.868692447766555
 40
0.8746462796402832
 40
0.8746462796402832
 40
0.8746462796402832
 40
0.8746462796402832
 10
-20.7928101117058
 20
52.4302801446811
 30
0.0
 10
-20.78552518469161
 20
52.43599336616989
 30
0.0
 10
-20.77825383342212
 20
52.44183541650871
 30
0.0
 10
-20.77099776107378
 20
52.44780547504268
 30
0.0
  0
SPLINE
  5
45E
330
23
100
AcDbEntity
  8
0
  6
Continuous
 62
     7
370
    15
100
AcDbSpline
210
0.0
220
0.0
230
1.0
 70
     8
 71
     3
 72
     8
 73
     4
 74
     0
 42
0.000000001
 43
0.00000001
 40
0.1272501220001335
 40
0.1272501220001335
 40
0.1272501220001335
 40
0.1272501220001335
 40
0.1331205146983191
 40
0.1331205146983191
 40
0.1331205146983191
 40
0.1331205146983191
 10
-20.76395572986089
 20
56.84166306590055
 30
0.0
 10
-20.7711002160829
 20
56.84762692752765
 30
0.0
 10
-20.7782600919918
 20
56.8534665857856
 30
0.0
 10
-20.78543372452362
 20
56.85918125215927
 30
0.0
  0
SPLINE
  5
45F
330
23
100
AcDbEntity
  8
0
  6
Continuous
 62
     7
370
    15
100
AcDbSpline
210
0.0
220
0.0
230
1.0
 70
     8
 71
     3
 72
     8
 73
     4
 74
     0
 42
0.000000001
 43
0.00000001
 40
0.0
 40
0.0
 40
0.0
 40
0.0
 40
1.0
 40
1.0
 40
1.0
 40
1.0
 10
-21.28135430947852
 20
57.04750084084009
 30
0.0
 10
-21.11927495924704
 20
57.04748972894657
 30
0.0
 10
-20.94994937081729
 20
56.9836109468832
 30
0.0
 10
-20.78543420942603
 20
56.8591816384425
 30
0.0
  0
SPLINE
  5
462
330
23
100
AcDbEntity
  8
0
  6
Continuous
 62
     7
370
    15
100
AcDbSpline
210
0.0
220
0.0
230
1.0
 70
     8
 71
     3
 72
    10
 73
     6
 74
     0
 42
0.000000001
 43
0.00000001
 40
0.3749999999954292
 40
0.3749999999954292
 40
0.3749999999954292
 40
0.3749999999954292
 40
0.499646999030088
 40
0.749646964677352
 40
1.0
 40
1.0
 40
1.0
 40
1.0
 10
-20.48155949880602
 20
55.17561939311977
 30
0.0
 10
-20.4815547247232
 20
55.21806805442142
 30
0.0
 10
-20.49643004891677
 20
55.34724094438703
 30
0.0
 10
-20.5905529512969
 20
55.50892833396959
 30
0.0
 10
-20.69404108254716
 20
55.50902328484864
 30
0.0
 10
-20.7378611503298
 20
55.4766882336829
 30
0.0
  0
SPLINE
  5
463
330
23
100
AcDbEntity
  8
0
  6
Continuous
 62
     7
370
    15
100
AcDbSpline
210
0.0
220
0.0
230
1.0
 70
     8
 71
     3
 72
    10
 73
     6
 74
     0
 42
0.000000001
 43
0.00000001
 40
0.0
 40
0.0
 40
0.0
 40
0.0
 40
0.2503523533725039
 40
0.5003528320249321
 40
0.6249999999981354
 40
0.6249999999981354
 40
0.6249999999981354
 40
0.6249999999981354
 10
-20.73792056041786
 20
54.87457068509427
 30
0.0
 10
-20.69410737944297
 20
54.84223247394704
 30
0.0
 10
-20.59062081578118
 20
54.84231983249322
 30
0.0
 10
-20.49646464071049
 20
55.00399890218299
 30
0.0
 10
-20.48156427289651
 20
55.13317066358048
 30
0.0
 10
-20.48155949880602
 20
55.17561939311977
 30
0.0
  0
SPLINE
  5
464
330
23
100
AcDbEntity
  8
0
  6
Continuous
 62
     7
370
    15
100
AcDbSpline
210
0.0
220
0.0
230
1.0
 70
     8
 71
     3
 72
     8
 73
     4
 74
     0
 42
0.000000001
 43
0.00000001
 40
0.0
 40
0.0
 40
0.0
 40
0.0
 40
1.0
 40
1.0
 40
1.0
 40
1.0
 10
-22.03648769847765
 20
55.00766455207795
 30
0.0
 10
-22.00747668373132
 20
55.07687279959939
 30
0.0
 10
-21.97802764986997
 20
55.14608107441743
 30
0.0
 10
-21.94814331463822
 20
55.21528927504582
 30
0.0
  0
SPLINE
  5
465
330
23
100
AcDbEntity
  8
0
  6
Continuous
 62
     7
370
    15
100
AcDbSpline
210
0.0
220
0.0
230
1.0
 70
     8
 71
     3
 72
     9
 73
     5
 74
     0
 42
0.000000001
 43
0.00000001
 40
0.0
 40
0.0
 40
0.0
 40
0.0
 40
0.1187894922453891
 40
0.1875000000010021
 40
0.1875000000010021
 40
0.1875000000010021
 40
0.1875000000010021
 10
-21.94814331441944
 20
55.21528927504582
 30
0.0
 10
-22.00265564260974
 20
55.34534971050553
 30
0.0
 10
-22.12383221563327
 20
55.43538974031603
 30
0.0
 10
-22.23185025263272
 20
55.49232315018094
 30
0.0
 10
-22.27101045344452
 20
55.49741645383022
 30
0.0
  0
SPLINE
  5
466
330
23
100
AcDbEntity
  8
0
  6
Continuous
 62
     7
370
    15
100
AcDbSpline
210
0.0
220
0.0
230
1.0
 70
     8
 71
     3
 72
    11
 73
     7
 74
     0
 42
0.000000001
 43
0.00000001
 40
0.0
 40
0.0
 40
0.0
 40
0.0
 40
0.1792852177526814
 40
0.3905273805971965
 40
0.5926489451218769
 40
0.9999999999999999
 40
0.9999999999999999
 40
0.9999999999999999
 40
0.9999999999999999
 10
-22.26801923812553
 20
54.10941985044404
 30
0.0
 10
-22.28414229426457
 20
54.10348497519601
 30
0.0
 10
-22.31926228329728
 20
54.09055735453761
 30
0.0
 10
-22.36752361797074
 20
54.13562940992167
 30
0.0
 10
-22.4271162470329
 20
54.22237004195152
 30
0.0
 10
-22.46354938114868
 20
54.31509915761023
 30
0.0
 10
-22.4879000658917
 20
54.37707618804433
 30
0.0
  0
SPLINE
  5
467
330
23
100
AcDbEntity
  8
0
  6
Continuous
 62
     7
370
    15
100
AcDbSpline
210
0.0
220
0.0
230
1.0
 70
     8
 71
     3
 72
    48
 73
    44
 74
     0
 42
0.000000001
 43
0.00000001
 40
0.0
 40
0.0
 40
0.0
 40
0.0
 40
0.0306588083397435
 40
0.0611143949618802
 40
0.0917259597977137
 40
0.1231847270526195
 40
0.1564103285111312
 40
0.1912309889338448
 40
0.225437253055169
 40
0.2571587780420699
 40
0.2859617402592423
 40
0.3143360627711613
 40
0.3453478874439656
 40
0.3789367290258823
 40
0.4133083421742277
 40
0.4460138455222581
 40
0.474655455034615
 40
0.4749196119121594
 40
0.4751834594146984
 40
0.47571157008195
 40
0.4767680568940667
 40
0.4788817169617515
 40
0.4831088112903875
 40
0.4915409813292672
 40
0.5082349716912737
 40
0.5242789290989465
 40
0.5414325381053562
 40
0.5720044177216542
 40
0.6089699566747374
 40
0.6474620591842078
 40
0.6778604827902045
 40
0.698089704034144
 40
0.7102523206257948
 40
0.7194331457907089
 40
0.7279521401573639
 40
0.7346388620763299
 40
0.7660905479219235
 40
0.7990744499871625
 40
0.8193720654366218
 40
0.8664494899318043
 40
0.9096550649521954
 40
0.9547217586040515
 40
1.0
 40
1.0
 40
1.0
 40
1.0
 10
-22.28020673935383
 20
53.81880137678397
 30
0.0
 10
-22.26538737928824
 20
53.81640021116307
 30
0.0
 10
-22.23584688919173
 20
53.81161379603239
 30
0.0
 10
-22.19037768876479
 20
53.81575598157651
 30
0.0
 10
-22.14405458932078
 20
53.83141663424074
 30
0.0
 10
-22.09654329441077
 20
53.86297495921954
 30
0.0
 10
-22.04828290736227
 20
53.91301214406808
 30
0.0
 10
-22.00116429850632
 20
53.9805809639311
 30
0.0
 10
-21.95877420729805
 20
54.06350241872205
 30
0.0
 10
-21.92571069423628
 20
54.15937853563712
 30
0.0
 10
-21.90701479213602
 20
54.27026518036249
 30
0.0
 10
-21.91246658931264
 20
54.38837863180945
 30
0.0
 10
-21.93572021150064
 20
54.49727521212089
 30
0.0
 10
-21.97012105024402
 20
54.59670127941286
 30
0.0
 10
-22.01153046113022
 20
54.68206876083737
 30
0.0
 10
-22.0552541853532
 20
54.74836017613149
 30
0.0
 10
-22.08607967991915
 20
54.7784487661489
 30
0.0
 10
-22.10105555530916
 20
54.78811597205991
 30
0.0
 10
-22.10159798962869
 20
54.78846325098385
 30
0.0
 10
-22.10254794177314
 20
54.78906371063375
 30
0.0
 10
-22.10445075588552
 20
54.79023577191666
 30
0.0
 10
-22.10826498740504
 20
54.79246306743746
 30
0.0
 10
-22.11591017053522
 20
54.79644735928601
 30
0.0
 10
-22.13117264823388
 20
54.80258213932898
 30
0.0
 10
-22.15255188890803
 20
54.80681486292338
 30
0.0
 10
-22.17798676580761
 20
54.80836371522191
 30
0.0
 10
-22.20981869212612
 20
54.80990642529227
 30
0.0
 10
-22.25091601210636
 20
54.81716291518601
 30
0.0
 10
-22.30026502575031
 20
54.8420820259422
 30
0.0
 10
-22.34772049048191
 20
54.87974404864548
 30
0.0
 10
-22.38586142263278
 20
54.92519081676017
 30
0.0
 10
-22.41022817251847
 20
54.96925408851516
 30
0.0
 10
-22.42160256607128
 20
55.01855765190178
 30
0.0
 10
-22.41770794225691
 20
55.05904735317413
 30
0.0
 10
-22.41044569764514
 20
55.08337598732727
 30
0.0
 10
-22.39440070485584
 20
55.12348523722876
 30
0.0
 10
-22.36489386626712
 20
55.16631419387208
 30
0.0
 10
-22.32717854820795
 20
55.20172397014744
 30
0.0
 10
-22.28063438482441
 20
55.22690488926762
 30
0.0
 10
-22.22592008855506
 20
55.21934847631948
 30
0.0
 10
-22.16120130474766
 20
55.16228130303313
 30
0.0
 10
-22.09698760556541
 20
55.10157211882127
 30
0.0
 10
-22.05668579034879
 20
55.03901590062621
 30
0.0
 10
-22.03648769825754
 20
55.00766455207784
 30
0.0
  0
SPLINE
  5
468
330
23
100
AcDbEntity
  8
0
  6
Continuous
 62
     7
370
    15
100
AcDbSpline
210
0.0
220
0.0
230
1.0
 70
     8
 71
     3
 72
     8
 73
     4
 74
     0
 42
0.000000001
 43
0.00000001
 40
0.7169402940218764
 40
0.7169402940218764
 40
0.7169402940218764
 40
0.7169402940218764
 40
0.7297036043200192
 40
0.7297036043200192
 40
0.7297036043200192
 40
0.7297036043200192
 10
-22.67569303634796
 20
53.84529677310035
 30
0.0
 10
-22.70265257828823
 20
53.84529703664364
 30
0.0
 10
-22.72888480343564
 20
53.84529726957088
 30
0.0
 10
-22.75438441898076
 20
53.84529747411082
 30
0.0
  0
SPLINE
  5
46A
330
23
100
AcDbEntity
  8
0
  6
Continuous
 62
     7
370
    15
100
AcDbSpline
210
0.0
220
0.0
230
1.0
 70
     8
 71
     3
 72
     8
 73
     4
 74
     0
 42
0.000000001
 43
0.00000001
 40
0.7169402940313097
 40
0.7169402940313097
 40
0.7169402940313097
 40
0.7169402940313097
 40
0.7297036043299604
 40
0.7297036043299604
 40
0.7297036043299604
 40
0.7297036043299604
 10
-22.75430112528246
 20
55.46475948551688
 30
0.0
 10
-22.72879994010047
 20
55.46475928088923
 30
0.0
 10
-22.70256615041026
 20
55.46475904787174
 30
0.0
 10
-22.67560504923255
 20
55.46475878423595
 30
0.0
  0
SPLINE
  5
46F
330
23
100
AcDbEntity
  8
0
  6
Continuous
 62
     7
370
    15
100
AcDbSpline
210
0.0
220
0.0
230
1.0
 70
     8
 71
     3
 72
     9
 73
     5
 74
     0
 42
0.000000001
 43
0.00000001
 40
0.7499999999940816
 40
0.7499999999940816
 40
0.7499999999940816
 40
0.7499999999940816
 40
0.9510333503433125
 40
1.0
 40
1.0
 40
1.0
 40
1.0
 10
-23.33639100840974
 20
54.49611048487646
 30
0.0
 10
-23.32635397893096
 20
54.49307930531877
 30
0.0
 10
-23.31230173741762
 20
54.53157696673161
 30
0.0
 10
-23.30064924355961
 20
54.61295335309791
 30
0.0
 10
-23.29849422223574
 20
54.63031245991657
 30
0.0
  0
SPLINE
  5
470
330
23
100
AcDbEntity
  8
0
  6
Continuous
 62
     7
370
    15
100
AcDbSpline
210
0.0
220
0.0
230
1.0
 70
     8
 71
     3
 72
    12
 73
     8
 74
     0
 42
0.000000001
 43
0.00000001
 40
0.0
 40
0.0
 40
0.0
 40
0.0
 40
0.0957326394444495
 40
0.2265025500572611
 40
0.484759364374178
 40
0.7422939929601249
 40
1.0
 40
1.0
 40
1.0
 40
1.0
 10
-23.28039462207414
 20
55.00356929514582
 30
0.0
 10
-23.2805894617306
 20
55.02722261660197
 30
0.0
 10
-23.28105045057719
 20
55.08318615900776
 30
0.0
 10
-23.28603903093781
 20
55.19783381377174
 30
0.0
 10
-23.29754608883084
 20
55.33182516297374
 30
0.0
 10
-23.31681633763469
 20
55.44060190880651
 30
0.0
 10
-23.32985320907956
 20
55.45190824970636
 30
0.0
 10
-23.33637381295286
 20
55.45756330050411
 30
0.0
  0
SPLINE
  5
473
330
23
100
AcDbEntity
  8
0
  6
Continuous
 62
     7
370
    15
100
AcDbSpline
210
0.0
220
0.0
230
1.0
 70
     8
 71
     3
 72
    15
 73
    11
 74
     0
 42
0.000000001
 43
0.00000001
 40
0.0
 40
0.0
 40
0.0
 40
0.0
 40
0.1333716714690037
 40
0.2663908722024529
 40
0.3998170881892411
 40
0.5333468107987804
 40
0.6668763919099306
 40
0.8003022333603282
 40
0.933321257694778
 40
0.9999999999999999
 40
0.9999999999999999
 40
0.9999999999999999
 40
0.9999999999999999
 10
-21.43099352669913
 20
52.24751617892409
 30
0.0
 10
-21.27405698885104
 20
52.28327710754066
 30
0.0
 10
-20.96059866042706
 20
52.35470445684231
 30
0.0
 10
-20.50961474757352
 20
52.90788940503266
 30
0.0
 10
-20.18965859162482
 20
53.7002167163696
 30
0.0
 10
-20.07237516368923
 20
54.64693462018522
 30
0.0
 10
-20.18937067215693
 20
55.59681782085801
 30
0.0
 10
-20.5095703109538
 20
56.37973036319699
 30
0.0
 10
-20.88399976234768
 20
56.86946039947005
 30
0.0
 10
-21.11847758712485
 20
56.93479277624369
 30
0.0
 10
-21.19676933128249
 20
56.95660714496897
 30
0.0
  0
SPLINE
  5
474
330
23
100
AcDbEntity
  8
0
  6
Continuous
 62
     7
370
    15
100
AcDbSpline
210
0.0
220
0.0
230
1.0
 70
     8
 71
     3
 72
     9
 73
     5
 74
     0
 42
0.000000001
 43
0.00000001
 40
0.0
 40
0.0
 40
0.0
 40
0.0
 40
0.5528765354340057
 40
1.0
 40
1.0
 40
1.0
 40
1.0
 10
-21.42863886923359
 20
57.04751588551493
 30
0.0
 10
-22.0111321541025
 20
57.04752788237555
 30
0.0
 10
-23.06470062289571
 20
57.04754958136227
 30
0.0
 10
-23.23377299101182
 20
57.04754300130433
 30
0.0
 10
-23.30936921400627
 20
57.04754005920609
 30
0.0
  0
SPLINE
  5
475
330
23
100
AcDbEntity
  8
0
  6
Continuous
 62
     7
370
    15
100
AcDbSpline
210
0.0
220
0.0
230
1.0
 70
     8
 71
     3
 72
    18
 73
    14
 74
     0
 42
0.000000001
 43
0.00000001
 40
0.0
 40
0.0
 40
0.0
 40
0.0
 40
0.0709147700509476
 40
0.1421851340520941
 40
0.2132124613142135
 40
0.2842018220523805
 40
0.4255250300701088
 40
0.5672742528895061
 40
0.7087690601049423
 40
0.8490202999098306
 40
0.9197200505620072
 40
0.9907005032836085
 40
1.0
 40
1.0
 40
1.0
 40
1.0
 10
-22.86220483436415
 20
54.65752729032247
 30
0.0
 10
-22.86328844896399
 20
54.71553390193418
 30
0.0
 10
-22.86546111182435
 20
54.83183799263336
 30
0.0
 10
-22.88156193260904
 20
54.99683229217101
 30
0.0
 10
-22.90563071613922
 20
55.14405505944175
 30
0.0
 10
-22.94612550296268
 20
55.30921705340852
 30
0.0
 10
-23.00704143010293
 20
55.45157688762803
 30
0.0
 10
-23.07988502352393
 20
55.50567846131737
 30
0.0
 10
-23.14642122476455
 20
55.4489575454129
 30
0.0
 10
-23.19233508500669
 20
55.30879780962061
 30
0.0
 10
-23.21801349002869
 20
55.14290925043308
 30
0.0
 10
-23.22947431908839
 20
55.04171019168214
 30
0.0
 10
-23.2326912151739
 20
54.97980147504023
 30
0.0
 10
-23.23306385510197
 20
54.97263007158071
 30
0.0
  0
SPLINE
  5
476
330
23
100
AcDbEntity
  8
0
  6
Continuous
 62
     7
370
    15
100
AcDbSpline
210
0.0
220
0.0
230
1.0
 70
     8
 71
     3
 72
    11
 73
     7
 74
     0
 42
0.000000001
 43
0.00000001
 40
0.2499999999948564
 40
0.2499999999948564
 40
0.2499999999948564
 40
0.2499999999948564
 40
0.6307424398848772
 40
0.7581621655107588
 40
0.8807997018387308
 40
1.0
 40
1.0
 40
1.0
 40
1.0
 10
-23.1977772122488
 20
54.0516989230001
 30
0.0
 10
-23.15267334806349
 20
53.82773566843724
 30
0.0
 10
-23.05246011207564
 20
53.74940990519939
 30
0.0
 10
-22.93060062495203
 20
54.04564279505885
 30
0.0
 10
-22.87599002751374
 20
54.32126211295429
 30
0.0
 10
-22.86220952925243
 20
54.54753476839447
 30
0.0
 10
-22.86220483436415
 20
54.65752729032247
 30
0.0
  0
SPLINE
  5
477
330
23
100
AcDbEntity
  8
0
  6
Continuous
 62
     7
370
    15
100
AcDbSpline
210
0.0
220
0.0
230
1.0
 70
     8
 71
     3
 72
     8
 73
     4
 74
     0
 42
0.000000001
 43
0.00000001
 40
0.8477867179209858
 40
0.8477867179209858
 40
0.8477867179209858
 40
0.8477867179209858
 40
0.9138004836347081
 40
0.9138004836347081
 40
0.9138004836347081
 40
0.9138004836347081
 10
-21.07103668676444
 20
53.8452596257728
 30
0.0
 10
-21.31329963758188
 20
53.84526795512723
 30
0.0
 10
-21.53814829534667
 20
53.84527460551691
 30
0.0
 10
-21.74485034191153
 20
53.8452798853053
 30
0.0
  0
SPLINE
  5
47A
330
23
100
AcDbEntity
  8
0
  6
Continuous
 62
     7
370
    15
100
AcDbSpline
210
0.0
220
0.0
230
1.0
 70
     8
 71
     3
 72
     8
 73
     4
 74
     0
 42
0.000000001
 43
0.00000001
 40
0.8615905659590004
 40
0.8615905659590004
 40
0.8615905659590004
 40
0.8615905659590004
 40
0.8907070890680191
 40
0.8907070890680191
 40
0.8907070890680191
 40
0.8907070890680191
 10
-21.31880057307966
 20
54.53860961741997
 30
0.0
 10
-21.42024274886191
 20
54.53861278990058
 30
0.0
 10
-21.51824731896944
 20
54.53861565673546
 30
0.0
 10
-21.61275144541902
 20
54.53861824438388
 30
0.0
  0
SPLINE
  5
47D
330
23
100
AcDbEntity
  8
0
  6
Continuous
 62
     7
370
    15
100
AcDbSpline
210
0.0
220
0.0
230
1.0
 70
     8
 71
     3
 72
     8
 73
     4
 74
     0
 42
0.000000001
 43
0.00000001
 40
0.8615905659637643
 40
0.8615905659637643
 40
0.8615905659637643
 40
0.8615905659637643
 40
0.9116488858089641
 40
0.9116488858089641
 40
0.9116488858089641
 40
0.9116488858089641
 10
-21.09454561487446
 20
55.17564246225781
 30
0.0
 10
-21.27739691316927
 20
55.17564869618552
 30
0.0
 10
-21.45022101166013
 20
55.17565397042556
 30
0.0
 10
-21.61269858063895
 20
55.17565841943517
 30
0.0
  0
SPLINE
  5
481
330
23
100
AcDbEntity
  8
0
  6
Continuous
 62
     7
370
    15
100
AcDbSpline
210
0.0
220
0.0
230
1.0
 70
     8
 71
     3
 72
    14
 73
    10
 74
     0
 42
0.000000001
 43
0.00000001
 40
0.1331205146983191
 40
0.1331205146983191
 40
0.1331205146983191
 40
0.1331205146983191
 40
0.1450385228319506
 40
0.3118544189617148
 40
0.4306345084147183
 40
0.572992303118548
 40
0.6917723451391946
 40
0.8585879482037171
 40
0.8686924477665559
 40
0.8686924477665559
 40
0.8686924477665559
 40
0.8686924477665559
 10
-20.77099776107379
 20
52.44780547504268
 30
0.0
 10
-20.75647300943488
 20
52.45975596468955
 30
0.0
 10
-20.53956401692862
 20
52.64666927606954
 30
0.0
 10
-20.20653943475673
 20
53.14735967595497
 30
0.0
 10
-19.94074762466683
 20
54.15702132243461
 30
0.0
 10
-19.94064078249092
 20
55.13786399444931
 30
0.0
 10
-20.20622441098404
 20
56.14755039427788
 30
0.0
 10
-20.53713817314313
 20
56.64521759744978
 30
0.0
 10
-20.7516581781265
 20
56.83139768157241
 30
0.0
 10
-20.76395572986089
 20
56.84166306590055
 30
0.0
  0
SPLINE
  5
482
330
23
100
AcDbEntity
  8
0
  6
Continuous
 62
     7
370
    15
100
AcDbSpline
210
0.0
220
0.0
230
1.0
 70
     8
 71
     3
 72
    19
 73
    15
 74
     0
 42
0.000000001
 43
0.00000001
 40
0.0
 40
0.0
 40
0.0
 40
0.0
 40
0.051276575009118
 40
0.1006654300042776
 40
0.1494867832863121
 40
0.1991061788227445
 40
0.2508259955359164
 40
0.3753547822935794
 40
0.5002337408306802
 40
0.6250594805287598
 40
0.7496414618182693
 40
0.8344259645715653
 40
0.9157949127678742
 40
1.0
 40
1.0
 40
1.0
 40
1.0
 10
-20.52239121352386
 20
55.17562479960003
 30
0.0
 10
-20.52277797484305
 20
55.19320701465125
 30
0.0
 10
-20.52353725906782
 20
55.22772416479738
 30
0.0
 10
-20.53047986233821
 20
55.27782068278453
 30
0.0
 10
-20.54174822671966
 20
55.32472407567346
 30
0.0
 10
-20.55769155788379
 20
55.36834346829644
 30
0.0
 10
-20.58702549781037
 20
55.42650304013375
 30
0.0
 10
-20.63682453299337
 20
55.48700972237941
 30
0.0
 10
-20.70978974110903
 20
55.50942235950507
 30
0.0
 10
-20.781864699069
 20
55.48699494617604
 30
0.0
 10
-20.8351792210518
 20
55.41997838568857
 30
0.0
 10
-20.86938005476955
 20
55.34170865780097
 30
0.0
 10
-20.88833976817596
 20
55.26152526390571
 30
0.0
 10
-20.89035002758608
 20
55.20459276248424
 30
0.0
 10
-20.89137237428766
 20
55.17563890968879
 30
0.0
  0
SPLINE
  5
483
330
23
100
AcDbEntity
  8
0
  6
Continuous
 62
     7
370
    15
100
AcDbSpline
210
0.0
220
0.0
230
1.0
 70
     8
 71
     3
 72
    19
 73
    15
 74
     0
 42
0.000000001
 43
0.00000001
 40
0.0
 40
0.0
 40
0.0
 40
0.0
 40
0.0512765657690199
 40
0.100665414019229
 40
0.1494867652186934
 40
0.1991061657469276
 40
0.2508259967269927
 40
0.3753547740327782
 40
0.5002337419610422
 40
0.6250594989519866
 40
0.7496414618332681
 40
0.8344259631648714
 40
0.915794909071922
 40
1.0
 40
1.0
 40
1.0
 40
1.0
 10
-20.89137237428766
 20
55.17563890968879
 30
0.0
 10
-20.89100856915106
 20
55.15805669574292
 30
0.0
 10
-20.89029435215643
 20
55.1235395470282
 30
0.0
 10
-20.88375462632905
 20
55.07344306735962
 30
0.0
 10
-20.87310882729237
 20
55.0265397365235
 30
0.0
 10
-20.85798042536854
 20
54.98292042718844
 30
0.0
 10
-20.82998377069779
 20
54.92476100695664
 30
0.0
 10
-20.78192803095139
 20
54.86425453770416
 30
0.0
 10
-20.70988116099228
 20
54.84184199679132
 30
0.0
 10
-20.63688941092597
 20
54.86426927638055
 30
0.0
 10
-20.58164213180569
 20
54.93128560799765
 30
0.0
 10
-20.54570876245591
 20
55.00955515117112
 30
0.0
 10
-20.52561803359632
 20
55.08973844244458
 30
0.0
 10
-20.52347903331105
 20
55.14667094513459
 30
0.0
 10
-20.52239121352385
 20
55.17562479959992
 30
0.0
  0
SPLINE
  5
484
330
23
100
AcDbEntity
  8
0
  6
Continuous
 62
     7
370
    15
100
AcDbSpline
210
0.0
220
0.0
230
1.0
 70
     8
 71
     3
 72
    11
 73
     7
 74
     0
 42
0.000000001
 43
0.00000001
 40
0.0
 40
0.0
 40
0.0
 40
0.0
 40
0.1246469580037884
 40
0.3746469193895466
 40
0.8753528410701246
 40
1.0
 40
1.0
 40
1.0
 40
1.0
 10
-20.5580816759147
 20
55.17562623296656
 30
0.0
 10
-20.55807780296928
 20
55.21013617305081
 30
0.0
 10
-20.57012112055365
 20
55.31486724830681
 30
0.0
 10
-20.6769575397813
 20
55.49878938220787
 30
0.0
 10
-20.83845826202601
 20
55.38496095422396
 30
0.0
 10
-20.85758901698137
 20
55.2101476798873
 30
0.0
 10
-20.85759270871262
 20
55.17563768415079
 30
0.0
  0
SPLINE
  5
485
330
23
100
AcDbEntity
  8
0
  6
Continuous
 62
     7
370
    15
100
AcDbSpline
210
0.0
220
0.0
230
1.0
 70
     8
 71
     3
 72
    11
 73
     7
 74
     0
 42
0.000000001
 43
0.00000001
 40
0.0
 40
0.0
 40
0.0
 40
0.0
 40
0.1246469414382947
 40
0.3746469243027244
 40
0.8753528680036066
 40
1.0
 40
1.0
 40
1.0
 40
1.0
 10
-20.85759270871262
 20
55.17563768415079
 30
0.0
 10
-20.85759580260977
 20
55.141127741546
 30
0.0
 10
-20.84615523925061
 20
55.03639670723326
 30
0.0
 10
-20.74368151584401
 20
54.85247509601921
 30
0.0
 10
-20.57822178981015
 20
54.96630303672412
 30
0.0
 10
-20.55808554886633
 20
55.1411162376525
 30
0.0
 10
-20.5580816759147
 20
55.17562623296656
 30
0.0
  0
SPLINE
  5
488
330
23
100
AcDbEntity
  8
0
  6
Continuous
 62
     7
370
    15
100
AcDbSpline
210
0.0
220
0.0
230
1.0
 70
     8
 71
     3
 72
    11
 73
     7
 74
     0
 42
0.000000001
 43
0.00000001
 40
0.0
 40
0.0
 40
0.0
 40
0.0
 40
0.1246471319963934
 40
0.6253530756972756
 40
0.8753530585617053
 40
1.0
 40
1.0
 40
1.0
 40
1.0
 10
-20.51713868069675
 20
55.17562085700922
 30
0.0
 10
-20.51714253524889
 20
55.14116501027588
 30
0.0
 10
-20.53721601311858
 20
54.96615283799811
 30
0.0
 10
-20.70215982325776
 20
54.85251357845134
 30
0.0
 10
-20.80431404994372
 20
55.0363265218654
 30
0.0
 10
-20.81571893237678
 20
55.14117678007158
 30
0.0
 10
-20.81571585320728
 20
55.17563257417757
 30
0.0
  0
SPLINE
  5
489
330
23
100
AcDbEntity
  8
0
  6
Continuous
 62
     7
370
    15
100
AcDbSpline
210
0.0
220
0.0
230
1.0
 70
     8
 71
     3
 72
     9
 73
     5
 74
     0
 42
0.000000001
 43
0.00000001
 40
0.0
 40
0.0
 40
0.0
 40
0.0
 40
0.1246471589298754
 40
0.3749999999999992
 40
0.3749999999999992
 40
0.3749999999999992
 40
0.3749999999999992
 10
-20.81571585320728
 20
55.17563257417757
 30
0.0
 10
-20.81571217901292
 20
55.21008842132591
 30
0.0
 10
-20.80427596398716
 20
55.31503648032554
 30
0.0
 10
-20.75833839858576
 20
55.38624462792874
 30
0.0
 10
-20.72258028073697
 20
55.41207942141424
 30
0.0
  0
SPLINE
  5
48A
330
23
100
AcDbEntity
  8
0
  6
Continuous
 62
     7
370
    15
100
AcDbSpline
210
0.0
220
0.0
230
1.0
 70
     8
 71
     3
 72
     9
 73
     5
 74
     0
 42
0.000000001
 43
0.00000001
 40
0.7500000000104408
 40
0.7500000000104408
 40
0.7500000000104408
 40
0.7500000000104408
 40
0.8753530419962116
 40
1.0
 40
1.0
 40
1.0
 40
1.0
 10
-20.5621502422569
 20
55.3625609670172
 30
0.0
 10
-20.54810891294971
 20
55.33835174955571
 30
0.0
 10
-20.52514620572246
 20
55.28004272431453
 30
0.0
 10
-20.51713482615077
 20
55.2100766485929
 30
0.0
 10
-20.51713868069675
 20
55.17562085700922
 30
0.0
  0
SPLINE
  5
48F
330
23
100
AcDbEntity
  8
0
  6
Continuous
 62
     7
370
    15
100
AcDbSpline
210
0.0
220
0.0
230
1.0
 70
     8
 71
     3
 72
     8
 73
     4
 74
     0
 42
0.000000001
 43
0.00000001
 40
0.0
 40
0.0
 40
0.0
 40
0.0
 40
1.0
 40
1.0
 40
1.0
 40
1.0
 10
-20.57957122668999
 20
55.00015151693416
 30
0.0
 10
-20.60014751264747
 20
55.04994623128056
 30
0.0
 10
-20.6206226214366
 20
55.09974094097725
 30
0.0
 10
-20.64099608119714
 20
55.14953563395042
 30
0.0
  0
SPLINE
  5
490
330
23
100
AcDbEntity
  8
0
  6
Continuous
 62
     7
370
    15
100
AcDbSpline
210
0.0
220
0.0
230
1.0
 70
     8
 71
     3
 72
     9
 73
     5
 74
     0
 42
0.000000001
 43
0.00000001
 40
0.0
 40
0.0
 40
0.0
 40
0.0
 40
0.7370077655628102
 40
1.0
 40
1.0
 40
1.0
 40
1.0
 10
-20.64099608119714
 20
55.14953563395031
 30
0.0
 10
-20.60322596377176
 20
55.1633189029912
 30
0.0
 10
-20.5778418584255
 20
55.30766827778555
 30
0.0
 10
-20.63421096714983
 20
55.3439731017864
 30
0.0
 10
-20.64791088764074
 20
55.34590666078121
 30
0.0
  0
SPLINE
  5
492
330
23
100
AcDbEntity
  8
0
  6
Continuous
 62
     7
370
    15
100
AcDbSpline
210
0.0
220
0.0
230
1.0
 70
     8
 71
     3
 72
    18
 73
    14
 74
     0
 42
0.000000001
 43
0.00000001
 40
0.0
 40
0.0
 40
0.0
 40
0.0
 40
0.1272247784771398
 40
0.2404750140731313
 40
0.3602527652649954
 40
0.5042993661581157
 40
0.6280286300409255
 40
0.7424352784426379
 40
0.861410280599297
 40
0.9269270403911924
 40
0.9623419244232708
 40
0.9808657198290068
 40
1.0
 40
1.0
 40
1.0
 40
1.0
 10
-20.6823264630855
 20
55.14954090175961
 30
0.0
 10
-20.6755449590591
 20
55.15245600178908
 30
0.0
 10
-20.66272684064139
 20
55.15796600329215
 30
0.0
 10
-20.64738753343997
 20
55.18185670340669
 30
0.0
 10
-20.63927302737575
 20
55.21612548028409
 30
0.0
 10
-20.63757856174884
 20
55.25366609015414
 30
0.0
 10
-20.64057450330835
 20
55.29059869188013
 30
0.0
 10
-20.65060005380643
 20
55.32109856810574
 30
0.0
 10
-20.66422809910154
 20
55.33858114026224
 30
0.0
 10
-20.67580575067579
 20
55.34431777892468
 30
0.0
 10
-20.68223737946489
 20
55.3457139640704
 30
0.0
 10
-20.68619150828741
 20
55.34594903237399
 30
0.0
 10
-20.68822809382098
 20
55.34592442540398
 30
0.0
 10
-20.68926289439416
 20
55.34591192246408
 30
0.0
  0
SPLINE
  5
494
330
23
100
AcDbEntity
  8
0
  6
Continuous
 62
     7
370
    15
100
AcDbSpline
210
0.0
220
0.0
230
1.0
 70
     8
 71
     3
 72
     8
 73
     4
 74
     0
 42
0.000000001
 43
0.00000001
 40
0.7360458512840105
 40
0.7360458512840105
 40
0.7360458512840105
 40
0.7360458512840105
 40
0.994035780500315
 40
0.994035780500315
 40
0.994035780500315
 40
0.994035780500315
 10
-20.66488896512136
 20
55.00015856132467
 30
0.0
 10
-20.65021461527927
 20
55.00015799289759
 30
0.0
 10
-20.63548806585182
 20
55.00015741872289
 30
0.0
 10
-20.62070949388108
 20
55.00015683875048
 30
0.0
  0
SPLINE
  5
495
330
23
100
AcDbEntity
  8
0
  6
Continuous
 62
     7
370
    15
100
AcDbSpline
210
0.0
220
0.0
230
1.0
 70
     8
 71
     3
 72
     8
 73
     4
 74
     0
 42
0.000000001
 43
0.00000001
 40
0.0
 40
0.0
 40
0.0
 40
0.0
 40
1.0
 40
1.0
 40
1.0
 40
1.0
 10
-20.72417379871654
 20
55.14489443138115
 30
0.0
 10
-20.70450806691716
 20
55.0966491518059
 30
0.0
 10
-20.68474630948532
 20
55.04840386182197
 30
0.0
 10
-20.66488896512136
 20
55.00015856132467
 30
0.0
  0
SPLINE
  5
496
330
23
100
AcDbEntity
  8
0
  6
Continuous
 62
     7
370
    15
100
AcDbSpline
210
0.0
220
0.0
230
1.0
 70
     8
 71
     3
 72
     8
 73
     4
 74
     0
 42
0.000000001
 43
0.00000001
 40
0.2122484079959326
 40
0.2122484079959326
 40
0.2122484079959326
 40
0.2122484079959326
 40
0.3868475806923621
 40
0.3868475806923621
 40
0.3868475806923621
 40
0.3868475806923621
 10
-20.75360756744638
 20
55.1448955464936
 30
0.0
 10
-20.74382036565544
 20
55.14489517745336
 30
0.0
 10
-20.73400909112188
 20
55.14489480582585
 30
0.0
 10
-20.72417379871652
 20
55.14489443159643
 30
0.0
  0
SPLINE
  5
498
330
23
100
AcDbEntity
  8
0
  6
Continuous
 62
     7
370
    15
100
AcDbSpline
210
0.0
220
0.0
230
1.0
 70
     8
 71
     3
 72
     8
 73
     4
 74
     0
 42
0.000000001
 43
0.00000001
 40
0.0
 40
0.0
 40
0.0
 40
0.0
 40
0.212248408170628
 40
0.212248408170628
 40
0.212248408170628
 40
0.212248408170628
 10
-20.7892080589417
 20
55.00016328763102
 30
0.0
 10
-20.77738169375403
 20
55.00016284663223
 30
0.0
 10
-20.76551965614297
 20
55.0001624018398
 30
0.0
 10
-20.75362204469141
 20
55.00016195322588
 30
0.0
  0
SPLINE
  5
49A
330
23
100
AcDbEntity
  8
0
  6
Continuous
 62
     7
370
    15
100
AcDbSpline
210
0.0
220
0.0
230
1.0
 70
     8
 71
     3
 72
     8
 73
     4
 74
     0
 42
0.000000001
 43
0.00000001
 40
0.0
 40
0.0
 40
0.0
 40
0.0
 40
0.5927181943348512
 40
0.5927181943348512
 40
0.5927181943348512
 40
0.5927181943348512
 10
-20.68926289439391
 20
55.3459119250439
 30
0.0
 10
-20.7228432450341
 20
55.34591321636584
 30
0.0
 10
-20.75614755428142
 20
55.34591447749282
 30
0.0
 10
-20.78917367517119
 20
55.34591570902503
 30
0.0
  0
SPLINE
  5
49B
330
23
100
AcDbEntity
  8
0
  6
Continuous
 62
     7
370
    15
100
AcDbSpline
210
0.0
220
0.0
230
1.0
 70
     8
 71
     3
 72
     8
 73
     4
 74
     0
 42
0.000000001
 43
0.00000001
 40
0.0
 40
0.0
 40
0.0
 40
0.0
 40
1.0
 40
1.0
 40
1.0
 40
1.0
 10
-20.62070949388108
 20
55.00015683875048
 30
0.0
 10
-20.64135012399495
 20
55.04995153768366
 30
0.0
 10
-20.66188927465467
 20
55.09974622530456
 30
0.0
 10
-20.6823264630855
 20
55.14954090175961
 30
0.0
  0
SPLINE
  5
49F
330
23
100
AcDbEntity
  8
0
  6
Continuous
 62
     7
370
    15
100
AcDbSpline
210
0.0
220
0.0
230
1.0
 70
     8
 71
     3
 72
     9
 73
     5
 74
     0
 42
0.000000001
 43
0.00000001
 40
0.0
 40
0.0
 40
0.0
 40
0.0
 40
0.7309924572305811
 40
1.0
 40
1.0
 40
1.0
 40
1.0
 10
-20.69432316457296
 20
55.20623423395021
 30
0.0
 10
-20.67815762314563
 20
55.2133007457879
 30
0.0
 10
-20.66144164561343
 20
55.27118498018535
 30
0.0
 10
-20.68533809374381
 20
55.2906871532528
 30
0.0
 10
-20.69126012723933
 20
55.29349246177406
 30
0.0
  0
SPLINE
  5
4A1
330
23
100
AcDbEntity
  8
0
  6
Continuous
 62
     7
370
    15
100
AcDbSpline
210
0.0
220
0.0
230
1.0
 70
     8
 71
     3
 72
     8
 73
     4
 74
     0
 42
0.000000001
 43
0.00000001
 40
0.0
 40
0.0
 40
0.0
 40
0.0
 40
0.7554713652888575
 40
0.7554713652888575
 40
0.7554713652888575
 40
0.7554713652888575
 10
-20.64990188960902
 20
55.29348720283478
 30
0.0
 10
-20.67072132880193
 20
55.29348802393086
 30
0.0
 10
-20.69143424297911
 20
55.29348883338692
 30
0.0
 10
-20.71204012001024
 20
55.29348963133251
 30
0.0
  0
SPLINE
  5
4A7
330
23
100
AcDbEntity
  8
0
  6
Continuous
 62
     7
370
    15
100
AcDbSpline
210
0.0
220
0.0
230
1.0
 70
     8
 71
     3
 72
     8
 73
     4
 74
     0
 42
0.000000001
 43
0.00000001
 40
0.0
 40
0.0
 40
0.0
 40
0.0
 40
1.0
 40
1.0
 40
1.0
 40
1.0
 10
-21.11491203530208
 20
53.84526464202821
 30
0.0
 10
-21.35842705803894
 20
53.84527276486495
 30
0.0
 10
-21.58448516674753
 20
53.84527919978732
 30
0.0
 10
-21.79222304163274
 20
53.84528424531931
 30
0.0
  0
SPLINE
  5
4AC
330
23
100
AcDbEntity
  8
0
  6
Continuous
 62
     7
370
    15
100
AcDbSpline
210
0.0
220
0.0
230
1.0
 70
     8
 71
     3
 72
     8
 73
     4
 74
     0
 42
0.000000001
 43
0.00000001
 40
0.0
 40
0.0
 40
0.0
 40
0.0
 40
1.0
 40
1.0
 40
1.0
 40
1.0
 10
-21.13854164908252
 20
55.17564745727999
 30
0.0
 10
-21.32233936237995
 20
55.17565353416176
 30
0.0
 10
-21.49608461941007
 20
55.17565864616802
 30
0.0
 10
-21.65939569265342
 20
55.1756629230169
 30
0.0
  0
SPLINE
  5
4AE
330
23
100
AcDbEntity
  8
0
  6
Continuous
 62
     7
370
    15
100
AcDbSpline
210
0.0
220
0.0
230
1.0
 70
     8
 71
     3
 72
     8
 73
     4
 74
     0
 42
0.000000001
 43
0.00000001
 40
0.0
 40
0.0
 40
0.0
 40
0.0
 40
1.0
 40
1.0
 40
1.0
 40
1.0
 10
-21.65942629564901
 20
54.80813086174974
 30
0.0
 10
-21.56443519404074
 20
54.80812837414306
 30
0.0
 10
-21.46591471835495
 20
54.80812560405324
 30
0.0
 10
-21.36393813379623
 20
54.80812252579026
 30
0.0
  0
SPLINE
  5
4B0
330
23
100
AcDbEntity
  8
0
  6
Continuous
 62
     7
370
    15
100
AcDbSpline
210
0.0
220
0.0
230
1.0
 70
     8
 71
     3
 72
     8
 73
     4
 74
     0
 42
0.000000001
 43
0.00000001
 40
0.0
 40
0.0
 40
0.0
 40
0.0
 40
1.0
 40
1.0
 40
1.0
 40
1.0
 10
-21.36396218434994
 20
54.5386144179899
 30
0.0
 10
-21.46593823913173
 20
54.53861749619493
 30
0.0
 10
-21.56445817808868
 20
54.53862026622858
 30
0.0
 10
-21.65944873641516
 20
54.53862275378118
 30
0.0
  0
SPLINE
  5
4B3
330
23
100
AcDbEntity
  8
0
  6
Continuous
 62
     7
370
    15
100
AcDbSpline
210
0.0
220
0.0
230
1.0
 70
     8
 71
     3
 72
     8
 73
     4
 74
     0
 42
0.000000001
 43
0.00000001
 40
0.0
 40
0.0
 40
0.0
 40
0.0
 40
1.0
 40
1.0
 40
1.0
 40
1.0
 10
-21.792092865624
 20
55.46474625343934
 30
0.0
 10
-21.59111823618703
 20
55.46474137166202
 30
0.0
 10
-21.37299894477841
 20
55.46473518958406
 30
0.0
 10
-21.13851463730595
 20
55.4647274367549
 30
0.0
  0
SPLINE
  5
4B4
330
23
100
AcDbEntity
  8
0
  6
Continuous
 62
     7
370
    15
100
AcDbSpline
210
0.0
220
0.0
230
1.0
 70
     8
 71
     3
 72
     8
 73
     4
 74
     0
 42
0.000000001
 43
0.00000001
 40
0.0
 40
0.0
 40
0.0
 40
0.0
 40
1.0
 40
1.0
 40
1.0
 40
1.0
 10
-21.65948382653586
 20
54.11719598027076
 30
0.0
 10
-21.4891574809181
 20
54.11719151998373
 30
0.0
 10
-21.30748031678937
 20
54.11718615119987
 30
0.0
 10
-21.11488651193072
 20
54.11717972684337
 30
0.0
  0
SPLINE
  5
4C4
330
23
100
AcDbEntity
  8
0
  6
Continuous
 62
     7
370
    15
100
AcDbSpline
210
0.0
220
0.0
230
1.0
 70
     8
 71
     3
 72
    54
 73
    50
 74
     0
 42
0.000000001
 43
0.00000001
 40
0.0
 40
0.0
 40
0.0
 40
0.0
 40
0.0252899618359431
 40
0.050225755408067
 40
0.0750020186257112
 40
0.0998171418964254
 40
0.1248685900890292
 40
0.1871792779693534
 40
0.2495029614147082
 40
0.2982751445222419
 40
0.3388224479713552
 40
0.3741528658651561
 40
0.4052505724502375
 40
0.4364843833919435
 40
0.4567769909573939
 40
0.4768719580922245
 40
0.4986591061497415
 40
0.5309109389980644
 40
0.5721447862257372
 40
0.623334632856354
 40
0.6582192016439243
 40
0.6873084602513149
 40
0.7106238384776513
 40
0.7282079428983079
 40
0.7401648358120678
 40
0.746866079532844
 40
0.7520511105315333
 40
0.7567575432877177
 40
0.7610568474853641
 40
0.7650424549758754
 40
0.7688310774176632
 40
0.7725579789773247
 40
0.7763650084188831
 40
0.7803855425586996
 40
0.7847333536734511
 40
0.7894988311082366
 40
0.7947508438625767
 40
0.8005409260813109
 40
0.8069075593923424
 40
0.8138796855133176
 40
0.8214793316957671
 40
0.8474675033281505
 40
0.8749697062061728
 40
0.8959385093743686
 40
0.9166075440974673
 40
0.937161698300537
 40
0.9577889508716206
 40
0.97867530851979
 40
1.0
 40
1.0
 40
1.0
 40
1.0
 10
-22.60297946347783
 20
54.16074761935885
 30
0.0
 10
-22.59274474132715
 20
54.13417406784448
 30
0.0
 10
-22.57241862716591
 20
54.08139910885701
 30
0.0
 10
-22.53866889477925
 20
54.01323915615364
 30
0.0
 10
-22.50278925942774
 20
53.95423841841463
 30
0.0
 10
-22.46443930195547
 20
53.90509816746347
 30
0.0
 10
-22.40369464290296
 20
53.8463554019718
 30
0.0
 10
-22.31576419053391
 20
53.80306450835737
 30
0.0
 10
-22.20758309744132
 20
53.82108947533937
 30
0.0
 10
-22.11209563937162
 20
53.88004622930509
 30
0.0
 10
-22.03664289256009
 20
53.97013596592981
 30
0.0
 10
-21.98404547981507
 20
54.09594640190873
 30
0.0
 10
-21.95561504570044
 20
54.24357858021733
 30
0.0
 10
-21.9504516314263
 20
54.3803002512695
 30
0.0
 10
-21.96048086365554
 20
54.49620344175266
 30
0.0
 10
-21.98288308873451
 20
54.5846483826935
 30
0.0
 10
-22.02077495332683
 20
54.66658875507635
 30
0.0
 10
-22.07875835860033
 20
54.73565257495727
 30
0.0
 10
-22.15751033336767
 20
54.79129001692007
 30
0.0
 10
-22.23739949565951
 20
54.82311819427343
 30
0.0
 10
-22.30758784050259
 20
54.84663238631737
 30
0.0
 10
-22.35931608504529
 20
54.86894207142856
 30
0.0
 10
-22.39976516470217
 20
54.88974812181235
 30
0.0
 10
-22.42952365195263
 20
54.91039320976654
 30
0.0
 10
-22.44922421474975
 20
54.92803140119862
 30
0.0
 10
-22.4611364062051
 20
54.94964254261559
 30
0.0
 10
-22.46514781959318
 20
54.97478519848187
 30
0.0
 10
-22.46847171594409
 20
54.99572149676324
 30
0.0
 10
-22.47041949194901
 20
55.01626528066128
 30
0.0
 10
-22.47119432305474
 20
55.03589292306432
 30
0.0
 10
-22.47072716178278
 20
55.05470742627294
 30
0.0
 10
-22.46901771309031
 20
55.07261187353074
 30
0.0
 10
-22.4660680370505
 20
55.08953891530643
 30
0.0
 10
-22.46189610919923
 20
55.10545206114226
 30
0.0
 10
-22.45651456450737
 20
55.12036460868019
 30
0.0
 10
-22.44992426024095
 20
55.1343083990884
 30
0.0
 10
-22.44211601103578
 20
55.14731285390739
 30
0.0
 10
-22.43307471541533
 20
55.15939681108084
 30
0.0
 10
-22.42278274796659
 20
55.17057520668533
 30
0.0
 10
-22.41121799386015
 20
55.18083874832514
 30
0.0
 10
-22.38837389861844
 20
55.19757808167058
 30
0.0
 10
-22.35261066695904
 20
55.21275891161992
 30
0.0
 10
-22.3076454930652
 20
55.21291451638122
 30
0.0
 10
-22.26543439878557
 20
55.20103564472056
 30
0.0
 10
-22.22741463396824
 20
55.18101087414507
 30
0.0
 10
-22.18995462884971
 20
55.15173561111719
 30
0.0
 10
-22.15314891730228
 20
55.11307574485791
 30
0.0
 10
-22.11690557248131
 20
55.06567715270838
 30
0.0
 10
-22.09383555020813
 20
55.02713800065295
 30
0.0
 10
-22.08218075560871
 20
55.00766832282067
 30
0.0
  0
SPLINE
  5
4C6
330
23
100
AcDbEntity
  8
0
  6
Continuous
 62
     7
370
    15
100
AcDbSpline
210
0.0
220
0.0
230
1.0
 70
     8
 71
     3
 72
    42
 73
    38
 74
     0
 42
0.000000001
 43
0.00000001
 40
0.0
 40
0.0
 40
0.0
 40
0.0
 40
0.0141165727447714
 40
0.0292307505734237
 40
0.0455158488325283
 40
0.0631106190571873
 40
0.0821251654603018
 40
0.1026467506478912
 40
0.1247447851792206
 40
0.1917460813272125
 40
0.2491264274961816
 40
0.2843831584121629
 40
0.3146203360630987
 40
0.3431325648696709
 40
0.3737758566555705
 40
0.4049490675771237
 40
0.4334235574281745
 40
0.4635197982186673
 40
0.4989703028492673
 40
0.5272082816728699
 40
0.5612467718234646
 40
0.598736126183248
 40
0.6235265497312392
 40
0.6493872445785519
 40
0.6699152140359484
 40
0.6857548180100845
 40
0.7010355294407017
 40
0.7128836698938866
 40
0.723391481970667
 40
0.735375088615057
 40
0.7508656409943667
 40
0.7766684254588974
 40
0.8052910672119834
 40
0.8380268428994585
 40
0.8757482512553945
 40
0.9379029806723753
 40
1.0
 40
1.0
 40
1.0
 40
1.0
 10
-21.99356176537274
 20
55.21529316161455
 30
0.0
 10
-22.00068459661776
 20
55.23074726365573
 30
0.0
 10
-22.01543362297596
 20
55.26274759477501
 30
0.0
 10
-22.04107190031014
 20
55.30384328561244
 30
0.0
 10
-22.06986517793378
 20
55.34185544890213
 30
0.0
 10
-22.10197796796943
 20
55.37611612624782
 30
0.0
 10
-22.13721161994633
 20
55.40686705042186
 30
0.0
 10
-22.17547129696734
 20
55.43404056777246
 30
0.0
 10
-22.24336967713753
 20
55.47321328015276
 30
0.0
 10
-22.33336930637071
 20
55.50330841610618
 30
0.0
 10
-22.42744208350776
 20
55.47387624544952
 30
0.0
 10
-22.49286756344101
 20
55.4019660113827
 30
0.0
 10
-22.53486370528008
 20
55.3073967985388
 30
0.0
 10
-22.56020621546658
 20
55.17887467555338
 30
0.0
 10
-22.5680407487028
 20
55.03133283932837
 30
0.0
 10
-22.56331414223066
 20
54.8824579859879
 30
0.0
 10
-22.53997513665644
 20
54.74947939734032
 30
0.0
 10
-22.49857138053633
 20
54.65236843657861
 30
0.0
 10
-22.44872281116425
 20
54.59733355462093
 30
0.0
 10
-22.39314015274957
 20
54.56735803120949
 30
0.0
 10
-22.33412688748181
 20
54.55639914424493
 30
0.0
 10
-22.27557896414704
 20
54.55007409676349
 30
0.0
 10
-22.22080615195826
 20
54.5387562311912
 30
0.0
 10
-22.17622007137776
 20
54.51957819632292
 30
0.0
 10
-22.13746243471197
 20
54.49125997904769
 30
0.0
 10
-22.10790356292305
 20
54.44872203277118
 30
0.0
 10
-22.08807766705167
 20
54.39784432660155
 30
0.0
 10
-22.07613533476925
 20
54.34186490318949
 30
0.0
 10
-22.07781698150055
 20
54.28305096572239
 30
0.0
 10
-22.09262112632677
 20
54.23066892717409
 30
0.0
 10
-22.12038845122371
 20
54.17700514943002
 30
0.0
 10
-22.16189930612252
 20
54.12779304389282
 30
0.0
 10
-22.21676390352251
 20
54.09982146189984
 30
0.0
 10
-22.27873955601518
 20
54.09789747370419
 30
0.0
 10
-22.35859415872758
 20
54.12387126573081
 30
0.0
 10
-22.45119905844005
 20
54.19745339998583
 30
0.0
 10
-22.50707883418843
 20
54.31722253748917
 30
0.0
 10
-22.53500574507483
 20
54.37707929219515
 30
0.0
  0
SPLINE
  5
4C7
330
23
100
AcDbEntity
  8
0
  6
Continuous
 62
     7
370
    15
100
AcDbSpline
210
0.0
220
0.0
230
1.0
 70
     8
 71
     3
 72
     8
 73
     4
 74
     0
 42
0.000000001
 43
0.00000001
 40
0.0
 40
0.0
 40
0.0
 40
0.0
 40
1.0
 40
1.0
 40
1.0
 40
1.0
 10
-22.08218276062979
 20
55.00766832298609
 30
0.0
 10
-22.05308099697753
 20
55.07687662590299
 30
0.0
 10
-22.02353987832917
 20
55.14608490582496
 30
0.0
 10
-21.99356206158863
 20
55.21529316163986
 30
0.0
  0
SPLINE
  5
4C8
330
23
100
AcDbEntity
  8
0
  6
Continuous
 62
     7
370
    15
100
AcDbSpline
210
0.0
220
0.0
230
1.0
 70
     8
 71
     3
 72
     8
 73
     4
 74
     0
 42
0.000000001
 43
0.00000001
 40
0.0
 40
0.0
 40
0.0
 40
0.0
 40
1.0
 40
1.0
 40
1.0
 40
1.0
 10
-22.53500700971018
 20
54.37707929227853
 30
0.0
 10
-22.55808271431804
 20
54.304968749326
 30
0.0
 10
-22.58074082808643
 20
54.23285819134882
 30
0.0
 10
-22.60297947210586
 20
54.16074761935941
 30
0.0
  0
SPLINE
  5
4CF
330
23
100
AcDbEntity
  8
0
  6
Continuous
 62
     7
370
    15
100
AcDbSpline
210
0.0
220
0.0
230
1.0
 70
     8
 71
     3
 72
     8
 73
     4
 74
     0
 42
0.000000001
 43
0.00000001
 40
0.0
 40
0.0
 40
0.0
 40
0.0
 40
1.0
 40
1.0
 40
1.0
 40
1.0
 10
-22.72706789305029
 20
53.84529975945873
 30
0.0
 10
-22.75412584956993
 20
53.84529996629295
 30
0.0
 10
-22.78045505909137
 20
53.84530014212396
 30
0.0
 10
-22.80605175990169
 20
53.84530028926338
 30
0.0
  0
SPLINE
  5
4D1
330
23
100
AcDbEntity
  8
0
  6
Continuous
 62
     7
370
    15
100
AcDbSpline
210
0.0
220
0.0
230
1.0
 70
     8
 71
     3
 72
     8
 73
     4
 74
     0
 42
0.000000001
 43
0.00000001
 40
0.0
 40
0.0
 40
0.0
 40
0.0
 40
1.0
 40
1.0
 40
1.0
 40
1.0
 10
-22.80596817656237
 20
55.46476230084663
 30
0.0
 10
-22.78036990074449
 20
55.46476215361984
 30
0.0
 10
-22.75403912133685
 20
55.4647619776989
 30
0.0
 10
-22.72697960027671
 20
55.4647617707722
 30
0.0
  0
SPLINE
  5
4D2
330
23
100
AcDbEntity
  8
0
  6
Continuous
 62
     7
370
    15
100
AcDbSpline
210
0.0
220
0.0
230
1.0
 70
     8
 71
     3
 72
    23
 73
    19
 74
     0
 42
0.000000001
 43
0.00000001
 40
0.0
 40
0.0
 40
0.0
 40
0.0
 40
0.0316861024152568
 40
0.0624655670804356
 40
0.0927348456294092
 40
0.1229105123256323
 40
0.1534129872608997
 40
0.1846495096348834
 40
0.2169996215428218
 40
0.2508053903489867
 40
0.3735955888142364
 40
0.5001868908898439
 40
0.6267359234243748
 40
0.7495644574681194
 40
0.8156316041570282
 40
0.8772691923815835
 40
0.937614523553518
 40
1.0
 40
1.0
 40
1.0
 40
1.0
 10
-22.91048248836695
 20
54.6575296921521
 30
0.0
 10
-22.91070683823458
 20
54.68698179006793
 30
0.0
 10
-22.91114911862371
 20
54.74504326995322
 30
0.0
 10
-22.91489227450226
 20
54.83024981674988
 30
0.0
 10
-22.92089884068718
 20
54.9119164368217
 30
0.0
 10
-22.92933119338451
 20
54.989997748214
 30
0.0
 10
-22.94007510409042
 20
55.06444914913167
 30
0.0
 10
-22.95305945779602
 20
55.13524713188567
 30
0.0
 10
-22.96819726845174
 20
55.20237335253575
 30
0.0
 10
-23.00000053524762
 20
55.32034917071471
 30
0.0
 10
-23.05494723153767
 20
55.45504888831665
 30
0.0
 10
-23.13031222368883
 20
55.50641047858362
 30
0.0
 10
-23.197790053491
 20
55.45504978816407
 30
0.0
 10
-23.24216237163598
 20
55.30510776149866
 30
0.0
 10
-23.26858621253017
 20
55.14080808634058
 30
0.0
 10
-23.28311793229853
 20
54.99318639062945
 30
0.0
 10
-23.29179535540812
 20
54.82995584843708
 30
0.0
 10
-23.29276150722825
 20
54.71563755797981
 30
0.0
 10
-23.29325261327397
 20
54.6575282604439
 30
0.0
  0
SPLINE
  5
4D3
330
23
100
AcDbEntity
  8
0
  6
Continuous
 62
     7
370
    15
100
AcDbSpline
210
0.0
220
0.0
230
1.0
 70
     8
 71
     3
 72
    23
 73
    19
 74
     0
 42
0.000000001
 43
0.00000001
 40
0.0
 40
0.0
 40
0.0
 40
0.0
 40
0.0316860838599703
 40
0.0624655322741576
 40
0.0927347982391419
 40
0.1229104576346473
 40
0.1534129322618249
 40
0.1846494629549241
 40
0.2169995932365891
 40
0.2508053916181519
 40
0.3735955757266441
 40
0.5001868914591767
 40
0.6267359654185779
 40
0.7495644562569694
 40
0.8156316015818997
 40
0.8772691830880188
 40
0.93761451285416
 40
1.0
 40
1.0
 40
1.0
 40
1.0
 10
-23.29325261327397
 20
54.6575282604439
 30
0.0
 10
-23.29312774562905
 20
54.62807616118481
 30
0.0
 10
-23.29288158318317
 20
54.57001467700329
 30
0.0
 10
-23.29078586665403
 20
54.48480815449186
 30
0.0
 10
-23.28738053988564
 20
54.40314157951909
 30
0.0
 10
-23.28251229367106
 20
54.32506033468776
 30
0.0
 10
-23.27615636009476
 20
54.25060901896994
 30
0.0
 10
-23.26824027169176
 20
54.1798111368258
 30
0.0
 10
-23.25867224533761
 20
54.11268502818412
 30
0.0
 10
-23.23773001767697
 20
53.99470951055174
 30
0.0
 10
-23.19782367160049
 20
53.86001027802023
 30
0.0
 10
-23.13040732938908
 20
53.80864881355407
 30
0.0
 10
-23.054983598881
 20
53.86000909940059
 30
0.0
 10
-22.99391417434761
 20
54.00995060739233
 30
0.0
 10
-22.95275361341356
 20
54.17424993506814
 30
0.0
 10
-22.9284164764514
 20
54.32187147960743
 30
0.0
 10
-22.91311476351505
 20
54.48510199044043
 30
0.0
 10
-22.91136958347319
 20
54.59942035260212
 30
0.0
 10
-22.91048248836695
 20
54.6575296921521
 30
0.0
  0
SPLINE
  5
4D4
330
23
100
AcDbEntity
  8
0
  6
Continuous
 62
     7
370
    15
100
AcDbSpline
210
0.0
220
0.0
230
1.0
 70
     8
 71
     3
 72
    11
 73
     7
 74
     0
 42
0.000000001
 43
0.00000001
 40
0.0
 40
0.0
 40
0.0
 40
0.0
 40
0.2451152526621412
 40
0.4999419363056374
 40
0.7547985183782969
 40
1.0
 40
1.0
 40
1.0
 40
1.0
 10
-22.98702786002291
 20
54.63750819279889
 30
0.0
 10
-22.98588148326005
 20
54.78518612881433
 30
0.0
 10
-23.02534875092719
 20
55.09417963736074
 30
0.0
 10
-23.12789946514708
 20
55.24322489929023
 30
0.0
 10
-23.21632113471105
 20
55.12344458642859
 30
0.0
 10
-23.24537101367779
 20
54.82528016026211
 30
0.0
 10
-23.24614903151203
 20
54.67755043943723
 30
0.0
  0
SPLINE
  5
4D5
330
23
100
AcDbEntity
  8
0
  6
Continuous
 62
     7
370
    15
100
AcDbSpline
210
0.0
220
0.0
230
1.0
 70
     8
 71
     3
 72
    11
 73
     7
 74
     0
 42
0.000000001
 43
0.00000001
 40
0.0
 40
0.0
 40
0.0
 40
0.0
 40
0.2451152664986072
 40
0.4999419905484637
 40
0.7547985919191248
 40
1.0
 40
1.0
 40
1.0
 40
1.0
 10
-23.24614903151203
 20
54.67755043943723
 30
0.0
 10
-23.24692587774574
 20
54.52987242297247
 30
0.0
 10
-23.22119960454015
 20
54.22087914667817
 30
0.0
 10
-23.13549406107862
 20
54.07183449207986
 30
0.0
 10
-23.03222652983967
 20
54.19161431459219
 30
0.0
 10
-22.9881746402196
 20
54.48977828584611
 30
0.0
 10
-22.98702786002291
 20
54.63750819279889
 30
0.0
  0
SPLINE
  5
4D7
330
23
100
AcDbEntity
  8
0
  6
Continuous
 62
     7
370
    15
100
AcDbSpline
210
0.0
220
0.0
230
1.0
 70
     8
 71
     3
 72
     9
 73
     5
 74
     0
 42
0.000000001
 43
0.00000001
 40
0.4999999999999978
 40
0.4999999999999978
 40
0.4999999999999978
 40
0.4999999999999978
 40
0.745201481621701
 40
1.0
 40
1.0
 40
1.0
 40
1.0
 10
-23.1968247920031
 20
54.67754893303945
 30
0.0
 10
-23.19605055673155
 20
54.82502024301183
 30
0.0
 10
-23.16709244254651
 20
55.12355943252678
 30
0.0
 10
-23.10871300069009
 20
55.20277043056987
 30
0.0
 10
-23.07658266811181
 20
55.19784651031223
 30
0.0
  0
SPLINE
  5
4D9
330
23
100
AcDbEntity
  8
0
  6
Continuous
 62
     7
370
    15
100
AcDbSpline
210
0.0
220
0.0
230
1.0
 70
     8
 71
     3
 72
    14
 73
    10
 74
     0
 42
0.000000001
 43
0.00000001
 40
0.0
 40
0.0
 40
0.0
 40
0.0
 40
0.0228480500039575
 40
0.2666212981322417
 40
0.5087303297267964
 40
0.6326974777244411
 40
0.7572482620313237
 40
0.8799685501057855
 40
1.0
 40
1.0
 40
1.0
 40
1.0
 10
-23.07905976557924
 20
54.11972392335063
 30
0.0
 10
-23.08055795693762
 20
54.11880548949433
 30
0.0
 10
-23.09804083730389
 20
54.10808798725875
 30
0.0
 10
-23.12854637599905
 20
54.15008553307887
 30
0.0
 10
-23.15993672441069
 20
54.2405605011208
 30
0.0
 10
-23.17841869326348
 20
54.35425589067955
 30
0.0
 10
-23.18891054283795
 20
54.45358580769921
 30
0.0
 10
-23.19587336817412
 20
54.56292274600405
 30
0.0
 10
-23.19651000128104
 20
54.63962339545658
 30
0.0
 10
-23.1968247920031
 20
54.67754893303945
 30
0.0
  0
SPLINE
  5
4DB
330
23
100
AcDbEntity
  8
0
  6
Continuous
 62
     7
370
    15
100
AcDbSpline
210
0.0
220
0.0
230
1.0
 70
     8
 71
     3
 72
    20
 73
    16
 74
     0
 42
0.000000001
 43
0.00000001
 40
0.0
 40
0.0
 40
0.0
 40
0.0
 40
0.0418237727897216
 40
0.0833896182849996
 40
0.1254329829742277
 40
0.1880921098434005
 40
0.2507342826531531
 40
0.3754023519771834
 40
0.500061782498045
 40
0.6247165040522774
 40
0.7493785150787236
 40
0.8119704911696352
 40
0.8746798264887778
 40
0.9374387257150595
 40
0.9999999999999999
 40
0.9999999999999999
 40
0.9999999999999999
 40
0.9999999999999999
 10
-23.38614882453842
 20
54.49611138068644
 30
0.0
 10
-23.38402284497225
 20
54.49626947891429
 30
0.0
 10
-23.37978399676034
 20
54.49658470037788
 30
0.0
 10
-23.37316377193111
 20
54.50789999627026
 30
0.0
 10
-23.36543247195617
 20
54.53009981619661
 30
0.0
 10
-23.35672111420315
 20
54.56869973489176
 30
0.0
 10
-23.34478811789744
 20
54.64834178313327
 30
0.0
 10
-23.3330067528433
 20
54.78354827924847
 30
0.0
 10
-23.32785213023888
 20
54.97683764171757
 30
0.0
 10
-23.33300442527455
 20
55.17012138937871
 30
0.0
 10
-23.34476910200075
 20
55.30527542388963
 30
0.0
 10
-23.35670470407522
 20
55.38503675909545
 30
0.0
 10
-23.36647693940169
 20
55.42806169836079
 30
0.0
 10
-23.37650705775008
 20
55.45502116968459
 30
0.0
 10
-23.3829267771966
 20
55.45671741247426
 30
0.0
 10
-23.38613157509843
 20
55.45756419641534
 30
0.0
  0
SPLINE
  5
4DE
330
23
100
AcDbEntity
  8
0
  6
Continuous
 62
     7
370
    15
100
AcDbSpline
210
0.0
220
0.0
230
1.0
 70
     8
 71
     3
 72
     8
 73
     4
 74
     0
 42
0.000000001
 43
0.00000001
 40
0.0
 40
0.0
 40
0.0
 40
0.0
 40
1.0
 40
1.0
 40
1.0
 40
1.0
 10
-23.38960449884054
 20
54.77871156153724
 30
0.0
 10
-23.41139177310295
 20
54.77871104982346
 30
0.0
 10
-23.42833101398771
 20
54.77871052482375
 30
0.0
 10
-23.44040679683793
 20
54.77871002462453
 30
0.0
  0
SPLINE
  5
4DF
330
23
100
AcDbEntity
  8
0
  6
Continuous
 62
     7
370
    15
100
AcDbSpline
210
0.0
220
0.0
230
1.0
 70
     8
 71
     3
 72
    17
 73
    13
 74
     0
 42
0.000000001
 43
0.00000001
 40
0.0
 40
0.0
 40
0.0
 40
0.0
 40
0.0605009623792273
 40
0.1215074668844818
 40
0.18452181676878
 40
0.2509101491912856
 40
0.380143096148402
 40
0.5002906288163869
 40
0.6276427386704558
 40
0.7508998321591837
 40
0.8505886565242828
 40
1.0
 40
1.0
 40
1.0
 40
1.0
 10
-23.3913334751551
 20
55.17567962704728
 30
0.0
 10
-23.3899488869991
 20
55.17567993824191
 30
0.0
 10
-23.38716814115811
 20
55.17568056323141
 30
0.0
 10
-23.38286491225897
 20
55.16670604618113
 30
0.0
 10
-23.37850711893797
 20
55.15101460589577
 30
0.0
 10
-23.37281679559202
 20
55.12221501284665
 30
0.0
 10
-23.36630003639912
 20
55.07086989646115
 30
0.0
 10
-23.36349381372338
 20
54.97967126343761
 30
0.0
 10
-23.36518110532991
 20
54.88886236049684
 30
0.0
 10
-23.37135547799371
 20
54.82009952728972
 30
0.0
 10
-23.3803292019109
 20
54.78849022861021
 30
0.0
 10
-23.38612500440462
 20
54.78237781390261
 30
0.0
 10
-23.3896013514686
 20
54.77871156148196
 30
0.0
  0
SPLINE
  5
4E0
330
23
100
AcDbEntity
  8
0
  6
Continuous
 62
     7
370
    15
100
AcDbSpline
210
0.0
220
0.0
230
1.0
 70
     8
 71
     3
 72
     8
 73
     4
 74
     0
 42
0.000000001
 43
0.00000001
 40
0.0
 40
0.0
 40
0.0
 40
0.0
 40
1.0
 40
1.0
 40
1.0
 40
1.0
 10
-23.44040293208868
 20
55.17567813135005
 30
0.0
 10
-23.42864936949616
 20
55.17567861815087
 30
0.0
 10
-23.41228926118527
 20
55.17567912843846
 30
0.0
 10
-23.39133671781894
 20
55.17567962710357
 30
0.0
  0
SPLINE
  5
4E2
330
23
100
AcDbEntity
  8
0
  6
Continuous
 62
     7
370
    15
100
AcDbSpline
210
0.0
220
0.0
230
1.0
 70
     8
 71
     3
 72
     8
 73
     4
 74
     0
 42
0.000000001
 43
0.00000001
 40
0.0
 40
0.0
 40
0.0
 40
0.0
 40
1.0
 40
1.0
 40
1.0
 40
1.0
 10
-23.4531830678226
 20
53.84529547650374
 30
0.0
 10
-23.44980779824041
 20
53.84529567738705
 30
0.0
 10
-23.44555183615196
 20
53.84529588569009
 30
0.0
 10
-23.44041588294241
 20
53.84529609848266
 30
0.0
  0
SPLINE
  5
4E4
330
23
100
AcDbEntity
  8
0
  6
Continuous
 62
     7
370
    15
100
AcDbSpline
210
0.0
220
0.0
230
1.0
 70
     8
 71
     3
 72
     8
 73
     4
 74
     0
 42
0.000000001
 43
0.00000001
 40
0.0
 40
0.0
 40
0.0
 40
0.0
 40
1.0
 40
1.0
 40
1.0
 40
1.0
 10
-23.38613451795075
 20
55.45756419646841
 30
0.0
 10
-23.41908100923164
 20
55.45756344256836
 30
0.0
 10
-23.44144189995989
 20
55.45756265529822
 30
0.0
 10
-23.45317274457198
 20
55.45756195753215
 30
0.0
  0
SPLINE
  5
4E5
330
23
100
AcDbEntity
  8
0
  6
Continuous
 62
     7
370
    15
100
AcDbSpline
210
0.0
220
0.0
230
1.0
 70
     8
 71
     3
 72
     8
 73
     4
 74
     0
 42
0.000000001
 43
0.00000001
 40
0.0
 40
0.0
 40
0.0
 40
0.0
 40
1.0
 40
1.0
 40
1.0
 40
1.0
 10
-23.44040954793849
 20
54.49610976363029
 30
0.0
 10
-23.42770304774735
 20
54.49611028999435
 30
0.0
 10
-23.40961104025972
 20
54.496110843824
 30
0.0
 10
-23.38615176740227
 20
54.49611138073951
 30
0.0
  0
LINE
  5
4F8
330
23
100
AcDbEntity
  8
0
  6
Continuous
 62
     7
370
    15
100
AcDbLine
 10
-76.8674081459
 20
-106.8573032049
 30
0.0
 11
60.1325918541
 21
-106.8573032049
 31
0.0
  0
LINE
  5
4F9
330
23
100
AcDbEntity
  8
0
  6
Continuous
 62
     7
370
    15
100
AcDbLine
 10
-4.2759951492
 20
1349.2352891103
 30
0.0
 11
-4.2759951492
 21
1349.6882883295
 31
0.0
  0
LINE
  5
4FA
330
23
100
AcDbEntity
  8
0
  6
Continuous
 62
     7
370
    15
100
AcDbLine
 10
-12.2759951492
 20
1349.6882883295
 30
0.0
 11
-12.2759951492
 21
1349.2352891103
 31
0.0
  0
LINE
  5
4FB
330
23
100
AcDbEntity
  8
0
  6
Continuous
 62
     7
370
    15
100
AcDbLine
 10
14.4052583585
 20
50.1477748447
 30
0.0
 11
-31.1400746503
 21
50.1477748447
 31
0.0
  0
LINE
  5
4FC
330
23
100
AcDbEntity
  8
0
  6
Continuous
 62
     7
370
    15
100
AcDbLine
 10
6.6325918541
 20
50.1477748447
 30
0.0
 11
6.6325918541
 21
59.2475392745
 31
0.0
  0
LINE
  5
4FD
330
23
100
AcDbEntity
  8
0
  6
Continuous
 62
     7
370
    15
100
AcDbLine
 10
-23.3674081459
 20
52.2475394983
 30
0.0
 11
-23.3674081459
 21
50.1477748447
 31
0.0
  0
LINE
  5
4FE
330
23
100
AcDbEntity
  8
0
  6
Continuous
 62
     7
370
    15
100
AcDbLine
 10
-23.3674081459
 20
59.2475392745
 30
0.0
 11
-23.3674081459
 21
57.0475392275
 31
0.0
  0
LINE
  5
4FF
330
23
100
AcDbEntity
  8
0
  6
Continuous
 62
     7
370
    15
100
AcDbLine
 10
4.1325918541
 20
60.9475392745
 30
0.0
 11
4.1325918541
 21
61.0377184472
 31
0.0
  0
LINE
  5
500
330
23
100
AcDbEntity
  8
0
  6
Continuous
 62
     7
370
    15
100
AcDbLine
 10
-20.8674081459
 20
61.0377184472
 30
0.0
 11
-20.8674081459
 21
60.9475392745
 31
0.0
  0
LINE
  5
501
330
23
100
AcDbEntity
  8
0
  6
Continuous
 62
     7
370
    15
100
AcDbLine
 10
-23.4111777742
 20
53.8452952062
 30
0.0
 11
-23.4111776744
 21
52.24753925
 31
0.0
  0
LINE
  5
502
330
23
100
AcDbEntity
  8
0
  6
Continuous
 62
     7
370
    15
100
AcDbLine
 10
-23.4111779742
 20
57.04753925
 30
0.0
 11
-23.4111778854
 21
55.625157784
 31
0.0
  0
LINE
  5
503
330
23
100
AcDbEntity
  8
0
  6
Continuous
 62
     7
370
    15
100
AcDbLine
 10
-21.0508898675
 20
57.00160246
 30
0.0
 11
-21.1979846919
 21
57.0016182037
 31
0.0
  0
LINE
  5
504
330
23
100
AcDbEntity
  8
0
  6
Continuous
 62
     7
370
    15
100
AcDbLine
 10
-15.8674081459
 20
1302.6475392745
 30
0.0
 11
-15.8674081459
 21
1294.6475392745
 31
0.0
  0
LINE
  5
505
330
23
100
AcDbEntity
  8
0
  6
Continuous
 62
     7
370
    15
100
AcDbLine
 10
-0.8674081459
 20
1294.6475392745
 30
0.0
 11
-0.8674081459
 21
1302.6475392745
 31
0.0
  0
LINE
  5
506
330
23
100
AcDbEntity
  8
0
  6
Continuous
 62
     7
370
    15
100
AcDbLine
 10
-15.8674081459
 20
1294.6475392745
 30
0.0
 11
-14.3674081459
 21
1286.1475392745
 31
0.0
  0
LINE
  5
507
330
23
100
AcDbEntity
  8
0
  6
Continuous
 62
     7
370
    15
100
AcDbLine
 10
-2.3674081459
 20
1286.1475392745
 30
0.0
 11
-0.8674081459
 21
1294.6475392745
 31
0.0
  0
LINE
  5
508
330
23
100
AcDbEntity
  8
0
  6
Continuous
 62
     7
370
    15
100
AcDbLine
 10
-0.8674081459
 20
69.6475392745
 30
0.0
 11
-0.8674081459
 21
77.6475392745
 31
0.0
  0
LINE
  5
509
330
23
100
AcDbEntity
  8
0
  6
Continuous
 62
     7
370
    15
100
AcDbLine
 10
-15.8674081459
 20
77.6475392745
 30
0.0
 11
-15.8674081459
 21
69.6475392745
 31
0.0
  0
LINE
  5
50A
330
23
100
AcDbEntity
  8
0
  6
Continuous
 62
     7
370
    15
100
AcDbLine
 10
-0.8674081459
 20
77.6475392745
 30
0.0
 11
-2.3674081459
 21
86.1475392745
 31
0.0
  0
LINE
  5
50B
330
23
100
AcDbEntity
  8
0
  6
Continuous
 62
     7
370
    15
100
AcDbLine
 10
-14.3674081459
 20
86.1475392745
 30
0.0
 11
-15.8674081459
 21
77.6475392745
 31
0.0
  0
LINE
  5
50C
330
23
100
AcDbEntity
  8
0
  6
Continuous
 62
     7
370
    15
100
AcDbLine
 10
-23.462882152
 20
54.1293327828
 30
0.0
 11
-23.4628821521
 21
53.8452944244
 31
0.0
  0
LINE
  5
50D
330
23
100
AcDbEntity
  8
0
  6
Continuous
 62
     7
370
    15
100
AcDbLine
 10
-23.4628821513
 20
55.457560905
 30
0.0
 11
-23.4628821514
 21
55.1626476102
 31
0.0
  0
LINE
  5
50E
330
23
100
AcDbEntity
  8
0
  6
Continuous
 62
     7
370
    15
100
AcDbLine
 10
60.1325918541
 20
-102.8573032049
 30
0.0
 11
-76.8674081445
 21
-102.8573032049
 31
0.0
  0
LINE
  5
50F
330
23
100
AcDbEntity
  8
0
  6
Continuous
 62
     7
370
    15
100
AcDbLine
 10
-7.5803195137
 20
1350.7203500152
 30
0.0
 11
-7.672578329
 21
1350.356126785
 31
0.0
  0
LINE
  5
510
330
23
100
AcDbEntity
  8
0
  6
Continuous
 62
     7
370
    15
100
AcDbLine
 10
-7.672578329
 20
1350.356126785
 30
0.0
 11
-8.6387642379
 21
1350.4416051346
 31
0.0
  0
LINE
  5
511
330
23
100
AcDbEntity
  8
0
  6
Continuous
 62
     7
370
    15
100
AcDbLine
 10
-8.9716707848
 20
1347.0326319209
 30
0.0
 11
-8.8687683743
 21
1348.0215334919
 31
0.0
  0
LINE
  5
512
330
23
100
AcDbEntity
  8
0
  6
Continuous
 62
     7
370
    15
100
AcDbLine
 10
-7.9460528071
 20
1346.9418956234
 30
0.0
 11
-7.8431503966
 21
1347.9307971943
 31
0.0
  0
LINE
  5
513
330
23
100
AcDbEntity
  8
0
  6
Continuous
 62
     7
370
    15
100
AcDbLine
 10
-7.6832219242
 20
1349.5830461146
 30
0.0
 11
-7.5803195137
 21
1350.7203500152
 31
0.0
  0
LINE
  5
514
330
23
100
AcDbEntity
  8
0
  6
Continuous
 62
     7
370
    15
100
AcDbLine
 10
-8.7088399019
 20
1349.6737824121
 30
0.0
 11
-8.6059374914
 21
1350.8110863127
 31
0.0
  0
LINE
  5
515
330
23
100
AcDbEntity
  8
0
  6
Continuous
 62
     7
370
    15
100
AcDbLine
 10
-7.672578329
 20
1350.356126785
 30
0.0
 11
-7.7007600524
 21
1350.0649764895
 31
0.0
  0
LINE
  5
516
330
23
100
AcDbEntity
  8
0
  6
Continuous
 62
     7
370
    15
100
AcDbLine
 10
-9.2705663672
 20
1349.3925661482
 30
0.0
 11
-9.3025854232
 21
1349.0617717001
 31
0.0
  0
LINE
  5
517
330
23
100
AcDbEntity
  8
0
  6
Continuous
 62
     7
370
    15
100
AcDbLine
 10
-10.2995621098
 20
1348.5610554368
 30
0.0
 11
-9.3025854232
 21
1349.0617717001
 31
0.0
  0
LINE
  5
518
330
23
100
AcDbEntity
  8
0
  6
Continuous
 62
     7
370
    15
100
AcDbLine
 10
-8.9980451895
 20
1349.0348290627
 30
0.0
 11
-9.3025854232
 21
1349.0617717001
 31
0.0
  0
LINE
  5
519
330
23
100
AcDbEntity
  8
0
  6
Continuous
 62
     7
370
    15
100
AcDbLine
 10
-6.3473374287
 20
1348.2114026008
 30
0.0
 11
-7.3443141153
 21
1348.8885236761
 31
0.0
  0
LINE
  5
51A
330
23
100
AcDbEntity
  8
0
  6
Continuous
 62
     7
370
    15
100
AcDbLine
 10
-7.3443141153
 20
1348.8885236761
 30
0.0
 11
-7.3128431598
 21
1349.2136556017
 31
0.0
  0
LINE
  5
51B
330
23
100
AcDbEntity
  8
0
  6
Continuous
 62
     7
370
    15
100
AcDbLine
 10
-7.3443141153
 20
1348.8885236761
 30
0.0
 11
-7.648854349
 21
1348.9154663134
 31
0.0
  0
LINE
  5
51C
330
23
100
AcDbEntity
  8
0
  6
Continuous
 62
     7
370
    15
100
AcDbLine
 10
-7.9460528071
 20
1346.9418956234
 30
0.0
 11
-7.8537939918
 21
1348.4839561922
 31
0.0
  0
LINE
  5
51D
330
23
100
AcDbEntity
  8
0
  6
Continuous
 62
     7
370
    15
100
AcDbLine
 10
-7.8256122684
 20
1348.7751064876
 30
0.0
 11
-7.8537939918
 21
1348.4839561922
 31
0.0
  0
LINE
  5
51E
330
23
100
AcDbEntity
  8
0
  6
Continuous
 62
     7
370
    15
100
AcDbLine
 10
-8.8794119695
 20
1348.5746924897
 30
0.0
 11
-7.8537939918
 21
1348.4839561922
 31
0.0
  0
LINE
  5
51F
330
23
100
AcDbEntity
  8
0
  6
Continuous
 62
     7
370
    15
100
AcDbLine
 10
-38.2289483066
 20
1324.6384245012
 30
0.0
 11
21.4941320147
 21
1324.6384245012
 31
0.0
  0
LINE
  5
520
330
23
100
AcDbEntity
  8
0
  6
Continuous
 62
     7
370
    15
100
AcDbLine
 10
-58.3674081459
 20
1357.6475392745
 30
0.0
 11
41.6325918541
 21
1357.6475392745
 31
0.0
  0
LINE
  5
521
330
23
100
AcDbEntity
  8
0
  6
Continuous
 62
     7
370
    15
100
AcDbLine
 10
-36.978086277
 20
1322.7825163562
 30
0.0
 11
20.2432699851
 21
1322.7825163562
 31
0.0
  0
LINE
  5
522
330
23
100
AcDbEntity
  8
0
  6
Continuous
 62
     7
370
    15
100
AcDbLine
 10
14.3632259813
 20
50.1475392745
 30
0.0
 11
-31.0980422732
 21
50.1475392745
 31
0.0
  0
LINE
  5
523
330
23
100
AcDbEntity
  8
0
  6
Continuous
 62
     7
370
    15
100
AcDbLine
 10
-22.6674081459
 20
59.9475392745
 30
0.0
 11
5.9325918541
 21
59.9475392745
 31
0.0
  0
LINE
  5
524
330
23
100
AcDbEntity
  8
0
  6
Continuous
 62
     7
370
    15
100
AcDbLine
 10
4.1325918541
 20
61.0377184472
 30
0.0
 11
-20.8674081459
 21
61.0377184472
 31
0.0
  0
LINE
  5
525
330
23
100
AcDbEntity
  8
0
  6
Continuous
 62
     7
370
    15
100
AcDbLine
 10
-22.6792738207
 20
55.464759002
 30
0.0
 11
-22.6793621161
 21
53.8452969909
 31
0.0
  0
LINE
  5
526
330
23
100
AcDbEntity
  8
0
  6
Continuous
 62
     7
370
    15
100
AcDbLine
 10
-22.7580997136
 20
53.845297672
 30
0.0
 11
-22.7580163966
 21
55.4647596834
 31
0.0
  0
LINE
  5
527
330
23
100
AcDbEntity
  8
0
  6
Continuous
 62
     7
370
    15
100
AcDbLine
 10
-23.4531830678
 20
53.8452954765
 30
0.0
 11
-23.3603829214
 21
53.8452940338
 31
0.0
  0
LINE
  5
528
330
23
100
AcDbEntity
  8
0
  6
Continuous
 62
     7
370
    15
100
AcDbLine
 10
-23.3904859318
 20
53.8452956142
 30
0.0
 11
-23.390479617
 21
54.4961092793
 31
0.0
  0
LINE
  5
529
330
23
100
AcDbEntity
  8
0
  6
Continuous
 62
     7
370
    15
100
AcDbLine
 10
-23.3904796167
 20
54.4961092793
 30
0.0
 11
-23.3363910084
 21
54.4961104849
 31
0.0
  0
LINE
  5
52A
330
23
100
AcDbEntity
  8
0
  6
Continuous
 62
     7
370
    15
100
AcDbLine
 10
-23.4628194204
 20
55.4575609806
 30
0.0
 11
-23.4032030178
 21
55.4575608742
 31
0.0
  0
LINE
  5
52B
330
23
100
AcDbEntity
  8
0
  6
Continuous
 62
     7
370
    15
100
AcDbLine
 10
-21.072207339
 20
54.1171748609
 30
0.0
 11
-21.0722328625
 21
53.8452597761
 31
0.0
  0
LINE
  5
52C
330
23
100
AcDbEntity
  8
0
  6
Continuous
 62
     7
370
    15
100
AcDbLine
 10
-21.6150716211
 20
54.538618463
 30
0.0
 11
-21.6151067114
 21
54.1171916895
 31
0.0
  0
LINE
  5
52D
330
23
100
AcDbEntity
  8
0
  6
Continuous
 62
     7
370
    15
100
AcDbLine
 10
-21.3204824407
 20
54.8081179119
 30
0.0
 11
-21.3205064914
 21
54.5386098041
 31
0.0
  0
LINE
  5
52E
330
23
100
AcDbEntity
  8
0
  6
Continuous
 62
     7
370
    15
100
AcDbLine
 10
-21.6150187603
 20
55.1756586321
 30
0.0
 11
-21.6150493634
 21
54.8081265709
 31
0.0
  0
LINE
  5
52F
330
23
100
AcDbEntity
  8
0
  6
Continuous
 62
     7
370
    15
100
AcDbLine
 10
-21.0957617975
 20
55.464722594
 30
0.0
 11
-21.0957888093
 21
55.1756426146
 31
0.0
  0
LINE
  5
530
330
23
100
AcDbEntity
  8
0
  6
Continuous
 62
     7
370
    15
100
AcDbLine
 10
-21.4309935267
 20
52.2475161789
 30
0.0
 11
-21.281390123
 21
52.2475008229
 31
0.0
  0
LINE
  5
531
330
23
100
AcDbEntity
  8
0
  6
Continuous
 62
     7
370
    15
100
AcDbLine
 10
-21.4305769265
 20
57.0475161598
 30
0.0
 11
-21.2813543031
 21
57.0475008408
 31
0.0
  0
LINE
  5
532
330
23
100
AcDbEntity
  8
0
  6
Continuous
 62
     7
370
    15
100
AcDbLine
 10
-20.5223912129
 20
55.1756247996
 30
0.0
 11
-20.4815594988
 21
55.1756193931
 31
0.0
  0
LINE
  5
533
330
23
100
AcDbEntity
  8
0
  6
Continuous
 62
     7
370
    15
100
AcDbLine
 10
-20.8575927087
 20
55.1756376842
 30
0.0
 11
-20.8157158532
 21
55.1756325742
 31
0.0
  0
LINE
  5
534
330
23
100
AcDbEntity
  8
0
  6
Continuous
 62
     7
370
    15
100
AcDbLine
 10
-20.7475444219
 20
55.000158115
 30
0.0
 11
-20.7120693675
 21
55.0001567485
 31
0.0
  0
LINE
  5
535
330
23
100
AcDbEntity
  8
0
  6
Continuous
 62
     7
370
    15
100
AcDbLine
 10
-20.7120693675
 20
55.0001567485
 30
0.0
 11
-20.7120578854
 21
55.1153150744
 31
0.0
  0
LINE
  5
536
330
23
100
AcDbEntity
  8
0
  6
Continuous
 62
     7
370
    15
100
AcDbLine
 10
-20.7120549365
 20
55.1448903419
 30
0.0
 11
-20.6827129419
 21
55.1448892007
 31
0.0
  0
LINE
  5
537
330
23
100
AcDbEntity
  8
0
  6
Continuous
 62
     7
370
    15
100
AcDbLine
 10
-20.6236129495
 20
55.0001532782
 30
0.0
 11
-20.5795712267
 21
55.0001515169
 31
0.0
  0
LINE
  5
538
330
23
100
AcDbEntity
  8
0
  6
Continuous
 62
     7
370
    15
100
AcDbLine
 10
-20.6823264656
 20
55.1495409018
 30
0.0
 11
-20.6409960812
 21
55.149535634
 31
0.0
  0
LINE
  5
539
330
23
100
AcDbEntity
  8
0
  6
Continuous
 62
     7
370
    15
100
AcDbLine
 10
-20.689262898
 20
55.3459119225
 30
0.0
 11
-20.6479108876
 21
55.3459066608
 31
0.0
  0
LINE
  5
53A
330
23
100
AcDbEntity
  8
0
  6
Continuous
 62
     7
370
    15
100
AcDbLine
 10
-20.7536220492
 20
55.0001619529
 30
0.0
 11
-20.7536075719
 21
55.1448955463
 31
0.0
  0
LINE
  5
53B
330
23
100
AcDbEntity
  8
0
  6
Continuous
 62
     7
370
    15
100
AcDbLine
 10
-20.7891736751
 20
55.3459157065
 30
0.0
 11
-20.789208059
 21
55.0001632873
 31
0.0
  0
LINE
  5
53C
330
23
100
AcDbEntity
  8
0
  6
Continuous
 62
     7
370
    15
100
AcDbLine
 10
-20.6912601272
 20
55.2934924618
 30
0.0
 11
-20.7535927079
 21
55.2934948348
 31
0.0
  0
LINE
  5
53D
330
23
100
AcDbEntity
  8
0
  6
Continuous
 62
     7
370
    15
100
AcDbLine
 10
-20.7535927079
 20
55.2934948348
 30
0.0
 11
-20.7536014361
 21
55.2062364896
 31
0.0
  0
LINE
  5
53E
330
23
100
AcDbEntity
  8
0
  6
Continuous
 62
     7
370
    15
100
AcDbLine
 10
-20.7536014361
 20
55.2062364896
 30
0.0
 11
-20.6943231646
 21
55.2062341739
 31
0.0
  0
LINE
  5
53F
330
23
100
AcDbEntity
  8
0
  6
Continuous
 62
     7
370
    15
100
AcDbLine
 10
-20.7535927079
 20
55.2934948348
 30
0.0
 11
-20.71204012
 21
55.2934896304
 31
0.0
  0
LINE
  5
540
330
23
100
AcDbEntity
  8
0
  6
Continuous
 62
     7
370
    15
100
AcDbLine
 10
-20.71204012
 20
55.2934896304
 30
0.0
 11
-20.7120488203
 21
55.2062312852
 31
0.0
  0
LINE
  5
541
330
23
100
AcDbEntity
  8
0
  6
Continuous
 62
     7
370
    15
100
AcDbLine
 10
-20.7536075719
 20
55.1448955463
 30
0.0
 11
-20.7241727453
 21
55.1448918596
 31
0.0
  0
LINE
  5
542
330
23
100
AcDbEntity
  8
0
  6
Continuous
 62
     7
370
    15
100
AcDbLine
 10
-20.7892080589
 20
55.0001632873
 30
0.0
 11
-20.7768165466
 21
55.000161749
 31
0.0
  0
LINE
  5
543
330
23
100
AcDbEntity
  8
0
  6
Continuous
 62
     7
370
    15
100
AcDbLine
 10
-20.7536220492
 20
55.0001619529
 30
0.0
 11
-20.7120693675
 21
55.0001567485
 31
0.0
  0
LINE
  5
544
330
23
100
AcDbEntity
  8
0
  6
Continuous
 62
     7
370
    15
100
AcDbLine
 10
-21.7922230416
 20
53.8452842453
 30
0.0
 11
-21.7474320518
 21
53.8452801096
 31
0.0
  0
LINE
  5
545
330
23
100
AcDbEntity
  8
0
  6
Continuous
 62
     7
370
    15
100
AcDbLine
 10
-21.1149120353
 20
53.845264642
 30
0.0
 11
-21.0722328624
 21
53.8452597761
 31
0.0
  0
LINE
  5
546
330
23
100
AcDbEntity
  8
0
  6
Continuous
 62
     7
370
    15
100
AcDbLine
 10
-21.1148865119
 20
54.1171797268
 30
0.0
 11
-21.1149120353
 21
53.845264642
 31
0.0
  0
LINE
  5
547
330
23
100
AcDbEntity
  8
0
  6
Continuous
 62
     7
370
    15
100
AcDbLine
 10
-21.1148865119
 20
54.1171797268
 30
0.0
 11
-21.0722074205
 21
54.1171748609
 31
0.0
  0
LINE
  5
548
330
23
100
AcDbEntity
  8
0
  6
Continuous
 62
     7
370
    15
100
AcDbLine
 10
-21.1385146373
 20
55.4647274368
 30
0.0
 11
-21.1385416491
 21
55.1756474573
 31
0.0
  0
LINE
  5
549
330
23
100
AcDbEntity
  8
0
  6
Continuous
 62
     7
370
    15
100
AcDbLine
 10
-21.6593956927
 20
55.175662923
 30
0.0
 11
-21.6594262956
 21
54.8081308617
 31
0.0
  0
LINE
  5
54A
330
23
100
AcDbEntity
  8
0
  6
Continuous
 62
     7
370
    15
100
AcDbLine
 10
-21.3639381338
 20
54.8081225258
 30
0.0
 11
-21.3639621843
 21
54.538614418
 31
0.0
  0
LINE
  5
54B
330
23
100
AcDbEntity
  8
0
  6
Continuous
 62
     7
370
    15
100
AcDbLine
 10
-21.6594487364
 20
54.5386227538
 30
0.0
 11
-21.6594838265
 21
54.1171959803
 31
0.0
  0
LINE
  5
54C
330
23
100
AcDbEntity
  8
0
  6
Continuous
 62
     7
370
    15
100
AcDbLine
 10
-21.7922230416
 20
53.8452842453
 30
0.0
 11
-21.7920928656
 21
55.4647462534
 31
0.0
  0
LINE
  5
54D
330
23
100
AcDbEntity
  8
0
  6
Continuous
 62
     7
370
    15
100
AcDbLine
 10
-21.6593956927
 20
55.175662923
 30
0.0
 11
-21.6150188576
 21
55.1756586321
 31
0.0
  0
LINE
  5
54E
330
23
100
AcDbEntity
  8
0
  6
Continuous
 62
     7
370
    15
100
AcDbLine
 10
-21.1385416491
 20
55.1756474573
 30
0.0
 11
-21.0957888093
 21
55.1756426146
 31
0.0
  0
LINE
  5
54F
330
23
100
AcDbEntity
  8
0
  6
Continuous
 62
     7
370
    15
100
AcDbLine
 10
-21.1385146373
 20
55.4647274368
 30
0.0
 11
-21.0957618836
 21
55.464722594
 31
0.0
  0
LINE
  5
550
330
23
100
AcDbEntity
  8
0
  6
Continuous
 62
     7
370
    15
100
AcDbLine
 10
-21.6594487364
 20
54.5386227538
 30
0.0
 11
-21.6150717327
 21
54.538618463
 31
0.0
  0
LINE
  5
551
330
23
100
AcDbEntity
  8
0
  6
Continuous
 62
     7
370
    15
100
AcDbLine
 10
-21.3639621843
 20
54.538614418
 30
0.0
 11
-21.3205064913
 21
54.5386098041
 31
0.0
  0
LINE
  5
552
330
23
100
AcDbEntity
  8
0
  6
Continuous
 62
     7
370
    15
100
AcDbLine
 10
-21.3639381338
 20
54.8081225258
 30
0.0
 11
-21.3204825174
 21
54.8081179119
 31
0.0
  0
LINE
  5
553
330
23
100
AcDbEntity
  8
0
  6
Continuous
 62
     7
370
    15
100
AcDbLine
 10
-15.8674081459
 20
1302.6475392745
 30
0.0
 11
-0.8674081459
 21
1302.6475392745
 31
0.0
  0
LINE
  5
554
330
23
100
AcDbEntity
  8
0
  6
Continuous
 62
     7
370
    15
100
AcDbLine
 10
-15.8674081459
 20
1294.6475392745
 30
0.0
 11
-0.8674081459
 21
1294.6475392745
 31
0.0
  0
LINE
  5
555
330
23
100
AcDbEntity
  8
0
  6
Continuous
 62
     7
370
    15
100
AcDbLine
 10
-14.3674081459
 20
1286.1475392745
 30
0.0
 11
-2.3674081459
 21
1286.1475392745
 31
0.0
  0
LINE
  5
556
330
23
100
AcDbEntity
  8
0
  6
Continuous
 62
     7
370
    15
100
AcDbLine
 10
-0.8674081459
 20
69.6475392745
 30
0.0
 11
-15.8674081459
 21
69.6475392745
 31
0.0
  0
LINE
  5
557
330
23
100
AcDbEntity
  8
0
  6
Continuous
 62
     7
370
    15
100
AcDbLine
 10
-0.8674081459
 20
77.6475392745
 30
0.0
 11
-15.8674081459
 21
77.6475392745
 31
0.0
  0
LINE
  5
558
330
23
100
AcDbEntity
  8
0
  6
Continuous
 62
     7
370
    15
100
AcDbLine
 10
-2.3674081459
 20
86.1475392745
 30
0.0
 11
-14.3674081459
 21
86.1475392745
 31
0.0
  0
LINE
  5
559
330
23
100
AcDbEntity
  8
0
  6
Continuous
 62
     7
370
    15
100
AcDbLine
 10
-22.0821827606
 20
55.007668323
 30
0.0
 11
-22.0364876983
 21
55.0076645521
 31
0.0
  0
LINE
  5
55A
330
23
100
AcDbEntity
  8
0
  6
Continuous
 62
     7
370
    15
100
AcDbLine
 10
-21.9935620616
 20
55.2152931616
 30
0.0
 11
-21.9481433144
 21
55.215289275
 31
0.0
  0
LINE
  5
55B
330
23
100
AcDbEntity
  8
0
  6
Continuous
 62
     7
370
    15
100
AcDbLine
 10
-22.5350070097
 20
54.3770792923
 30
0.0
 11
-22.4879000659
 21
54.377076188
 31
0.0
  0
LINE
  5
55C
330
23
100
AcDbEntity
  8
0
  6
Continuous
 62
     7
370
    15
100
AcDbLine
 10
-22.7270678931
 20
53.8452997595
 30
0.0
 11
-22.6793621141
 21
53.8452969909
 31
0.0
  0
LINE
  5
55D
330
23
100
AcDbEntity
  8
0
  6
Continuous
 62
     7
370
    15
100
AcDbLine
 10
-22.7269796003
 20
55.4647617708
 30
0.0
 11
-22.7270678931
 21
53.8452997595
 31
0.0
  0
LINE
  5
55E
330
23
100
AcDbEntity
  8
0
  6
Continuous
 62
     7
370
    15
100
AcDbLine
 10
-22.7269796003
 20
55.4647617708
 30
0.0
 11
-22.6792741
 21
55.464759002
 31
0.0
  0
LINE
  5
55F
330
23
100
AcDbEntity
  8
0
  6
Continuous
 62
     7
370
    15
100
AcDbLine
 10
-22.8060517599
 20
53.8453002893
 30
0.0
 11
-22.7580997143
 21
53.845297672
 31
0.0
  0
LINE
  5
560
330
23
100
AcDbEntity
  8
0
  6
Continuous
 62
     7
370
    15
100
AcDbLine
 10
-22.8060517599
 20
53.8453002893
 30
0.0
 11
-22.8059681766
 21
55.4647623008
 31
0.0
  0
LINE
  5
561
330
23
100
AcDbEntity
  8
0
  6
Continuous
 62
     7
370
    15
100
AcDbLine
 10
-22.910482487
 20
54.6575296922
 30
0.0
 11
-22.8622048344
 21
54.6575272903
 31
0.0
  0
LINE
  5
562
330
23
100
AcDbEntity
  8
0
  6
Continuous
 62
     7
370
    15
100
AcDbLine
 10
-23.2461490315
 20
54.6775504394
 30
0.0
 11
-23.196824792
 21
54.677548933
 31
0.0
  0
LINE
  5
563
330
23
100
AcDbEntity
  8
0
  6
Continuous
 62
     7
370
    15
100
AcDbLine
 10
-23.3861517674
 20
54.4961113807
 30
0.0
 11
-23.3363910084
 21
54.4961104849
 31
0.0
  0
LINE
  5
564
330
23
100
AcDbEntity
  8
0
  6
Continuous
 62
     7
370
    15
100
AcDbLine
 10
-23.386134518
 20
55.4575641965
 30
0.0
 11
-23.336373813
 21
55.4575633005
 31
0.0
  0
LINE
  5
565
330
23
100
AcDbEntity
  8
0
  6
Continuous
 62
     7
370
    15
100
AcDbLine
 10
-23.4404067968
 20
54.7787100246
 30
0.0
 11
-23.4404029321
 21
55.1756781314
 31
0.0
  0
LINE
  5
566
330
23
100
AcDbEntity
  8
0
  6
Continuous
 62
     7
370
    15
100
AcDbLine
 10
-23.4404158829
 20
53.8452960985
 30
0.0
 11
-23.4404095479
 21
54.4961097636
 31
0.0
  0
LINE
  5
567
330
23
100
AcDbEntity
  8
0
  6
Continuous
 62
     7
370
    15
100
AcDbLine
 10
-23.4531727446
 20
55.4575619575
 30
0.0
 11
-23.4531830678
 21
53.8452954765
 31
0.0
  0
LINE
  5
568
330
23
100
AcDbEntity
  8
0
  6
Continuous
 62
     7
370
    15
100
AcDbLine
 10
-23.3904768742
 20
54.7787095402
 30
0.0
 11
-23.3904730291
 21
55.1749069588
 31
0.0
  0
LINE
  5
569
330
23
100
AcDbEntity
  8
0
  6
Continuous
 62
     7
370
    15
100
AcDbLine
 10
-23.4404095479
 20
54.4961097636
 30
0.0
 11
-23.3904796167
 21
54.4961092793
 31
0.0
  0
LINE
  5
56A
330
23
100
AcDbEntity
  8
0
  6
Continuous
 62
     7
370
    15
100
AcDbLine
 10
-23.4404029321
 20
55.1756781314
 30
0.0
 11
-23.3904730215
 21
55.1756776469
 31
0.0
  0
LINE
  5
56B
330
23
100
AcDbEntity
  8
0
  6
Continuous
 62
     7
370
    15
100
AcDbLine
 10
-23.4404158829
 20
53.8452960985
 30
0.0
 11
-23.3904859319
 21
53.8452956142
 31
0.0
  0
LINE
  5
56C
330
23
100
AcDbEntity
  8
0
  6
Continuous
 62
     7
370
    15
100
AcDbLine
 10
-23.4626554896
 20
54.1293329131
 30
0.0
 11
-23.4626557679
 21
53.8452945696
 31
0.0
  0
LINE
  5
56D
330
23
100
AcDbEntity
  8
0
  6
Continuous
 62
     7
370
    15
100
AcDbLine
 10
-23.4626557679
 20
53.8452945696
 30
0.0
 11
-23.4610483857
 21
53.8452944558
 31
0.0
  0
LINE
  5
56E
330
23
100
AcDbEntity
  8
0
  6
Continuous
 62
     7
370
    15
100
AcDbLine
 10
-23.4628194204
 20
55.4575609806
 30
0.0
 11
-23.4628195725
 21
55.1626476752
 31
0.0
  0
LINE
  5
56F
330
23
100
AcDbEntity
  8
0
  6
Continuous
 62
     7
370
    15
100
AcDbLine
 10
-23.4628195725
 20
55.1626476752
 30
0.0
 11
-23.462119353
 21
55.1626476124
 31
0.0
  0
LINE
  5
570
330
23
100
AcDbEntity
  8
0
  6
Continuous
 62
     7
370
    15
100
AcDbLine
 10
-23.4581383904
 20
54.8277333982
 30
0.0
 11
-23.458137093
 21
54.5386357126
 31
0.0
  0
LINE
  5
571
330
23
100
AcDbEntity
  8
0
  6
Continuous
 62
     7
370
    15
100
AcDbLine
 10
-23.4618269295
 20
54.1293327846
 30
0.0
 11
-23.4626554896
 21
54.1293329131
 31
0.0
  0
LINE
  5
572
330
23
100
AcDbEntity
  8
0
  6
Continuous
 62
     8
370
    15
100
AcDbLine
 10
34.2250852328
 20
-45.010673161
 30
0.0
 11
-50.9599015247
 21
-45.010673161
 31
0.0
  0
LINE
  5
573
330
23
100
AcDbEntity
  8
0
  6
Continuous
 62
     8
370
    15
100
AcDbLine
 10
31.794206498
 20
-39.022221735
 30
0.0
 11
-48.5290227899
 21
-39.022221735
 31
0.0
  0
LINE
  5
574
330
23
100
AcDbEntity
  8
0
  6
Continuous
 62
     8
370
    15
100
AcDbLine
 10
18.0012542813
 20
47.4614069817
 30
0.0
 11
-34.7360705732
 21
47.4614069817
 31
0.0
  0
LINE
  5
575
330
23
100
AcDbEntity
  8
0
  6
Continuous
 62
     8
370
    15
100
AcDbLine
 10
6.6325918541
 20
59.2475392745
 30
0.0
 11
-23.3674081459
 21
59.2475392745
 31
0.0
  0
LINE
  5
576
330
23
100
AcDbEntity
  8
0
  6
Continuous
 62
     8
370
    15
100
AcDbLine
 10
4.1325918541
 20
60.9475392745
 30
0.0
 11
-20.8674081459
 21
60.9475392745
 31
0.0
  0
LINE
  5
577
330
23
100
AcDbEntity
  8
0
  6
Continuous
 62
     8
370
    15
100
AcDbLine
 10
-20.5223914022
 20
55.1756215467
 30
0.0
 11
-20.5171386807
 21
55.175620857
 31
0.0
  0
ARC
  5
578
330
23
100
AcDbEntity
  8
0
  6
Continuous
 62
     7
370
    15
100
AcDbCircle
 10
60.1325918541
 20
-104.8573032049
 30
0.0
 40
2.000000000000028
100
AcDbArc
 50
270.0
 51
90.0
  0
ARC
  5
579
330
23
100
AcDbEntity
  8
0
  6
Continuous
 62
     7
370
    15
100
AcDbCircle
 10
-76.8674081459
 20
-104.8573032049
 30
0.0
 40
2.000000000000028
100
AcDbArc
 50
90.0
 51
270.0
  0
ARC
  5
57A
330
23
100
AcDbEntity
  8
0
  6
Continuous
 62
     7
370
    15
100
AcDbCircle
 10
18.2658023696
 20
-108.5362819778
 30
0.0
 40
93.9558463066923
100
AcDbArc
 50
137.4586642148
 51
176.5347556573
  0
ARC
  5
57B
330
23
100
AcDbEntity
  8
0
  6
Continuous
 62
     7
370
    15
100
AcDbCircle
 10
-35.0006186615
 20
-108.5362819778
 30
0.0
 40
93.95584630669246
100
AcDbArc
 50
3.4652443427
 51
42.5413357852
  0
ARC
  5
57C
330
23
100
AcDbEntity
  8
0
  6
Continuous
 62
     7
370
    15
100
AcDbCircle
 10
-22.2459148473
 20
1357.0371512221
 30
0.0
 40
36.12665015884692
100
AcDbArc
 50
179.0318968613
 51
243.7418217393
  0
ARC
  5
57D
330
23
100
AcDbEntity
  8
0
  6
Continuous
 62
     7
370
    15
100
AcDbCircle
 10
5.5110985554
 20
1357.0371512221
 30
0.0
 40
36.12665015884731
100
AcDbArc
 50
296.2581782607
 51
0.9681031387
  0
ARC
  5
57E
330
23
100
AcDbEntity
  8
0
  6
Continuous
 62
     7
370
    15
100
AcDbCircle
 10
41.0403903596
 20
-38.7565452418
 30
0.0
 40
9.249999999999702
100
AcDbArc
 50
181.6458632914
 51
222.5413357852
  0
ARC
  5
57F
330
23
100
AcDbEntity
  8
0
  6
Continuous
 62
     7
370
    15
100
AcDbCircle
 10
-57.7752066515
 20
-38.7565452418
 30
0.0
 40
9.249999999999417
100
AcDbArc
 50
317.4586642148
 51
358.3541367086
  0
ARC
  5
580
330
23
100
AcDbEntity
  8
0
  6
Continuous
 62
     7
370
    15
100
AcDbCircle
 10
290.5976425043
 20
-48.7665643222
 30
0.0
 40
339.2666316130548
100
AcDbArc
 50
163.5227126283
 51
178.3541367086
  0
ARC
  5
581
330
23
100
AcDbEntity
  8
0
  6
Continuous
 62
     7
370
    15
100
AcDbCircle
 10
-307.3324587962
 20
-48.7665643222
 30
0.0
 40
339.2666316130558
100
AcDbArc
 50
1.6458632914
 51
16.4772873717
  0
ARC
  5
582
330
23
100
AcDbEntity
  8
0
  6
Continuous
 62
     7
370
    15
100
AcDbCircle
 10
-38.9780857071
 20
1322.7840261742
 30
0.0
 40
2.000000000000375
100
AcDbArc
 50
359.9567468962
 51
68.0023416074
  0
ARC
  5
583
330
23
100
AcDbEntity
  8
0
  6
Continuous
 62
     7
370
    15
100
AcDbCircle
 10
22.2432694152
 20
1322.7840261742
 30
0.0
 40
2.000000000000407
100
AcDbArc
 50
111.9976583926
 51
180.0432531038
  0
ARC
  5
584
330
23
100
AcDbEntity
  8
0
  6
Continuous
 62
     7
370
    15
100
AcDbCircle
 10
-8.8228399291
 20
1331.4209017291
 30
0.0
 40
29.45062985331599
100
AcDbArc
 50
197.0566752071
 51
257.6886343053
  0
ARC
  5
585
330
23
100
AcDbEntity
  8
0
  6
Continuous
 62
     7
370
    15
100
AcDbCircle
 10
-7.9119763627
 20
1331.4209017291
 30
0.0
 40
29.45062985331565
100
AcDbArc
 50
282.3113656947
 51
342.9433247929
  0
ARC
  5
586
330
23
100
AcDbEntity
  8
0
  6
Continuous
 62
     7
370
    15
100
AcDbCircle
 10
14.4052583585
 20
46.3977748447
 30
0.0
 40
3.750000000000185
100
AcDbArc
 50
16.4772873717
 51
90.0
  0
ARC
  5
587
330
23
100
AcDbEntity
  8
0
  6
Continuous
 62
     7
370
    15
100
AcDbCircle
 10
-31.1400746503
 20
46.3977748447
 30
0.0
 40
3.750000000000192
100
AcDbArc
 50
90.0
 51
163.5227126283
  0
ARC
  5
588
330
23
100
AcDbEntity
  8
0
  6
Continuous
 62
     7
370
    15
100
AcDbCircle
 10
5.9325918541
 20
59.2475392745
 30
0.0
 40
0.6999999999999744
100
AcDbArc
 50
360.0
 51
90.0
  0
ARC
  5
589
330
23
100
AcDbEntity
  8
0
  6
Continuous
 62
     7
370
    15
100
AcDbCircle
 10
-22.6674081459
 20
59.2475392745
 30
0.0
 40
0.6999999999999744
100
AcDbArc
 50
90.0
 51
180.0
  0
ARC
  5
58A
330
23
100
AcDbEntity
  8
0
  6
Continuous
 62
     7
370
    15
100
AcDbCircle
 10
5.1325918541
 20
60.9475392745
 30
0.0
 40
0.9999999999999689
100
AcDbArc
 50
180.0
 51
270.0
  0
ARC
  5
58B
330
23
100
AcDbEntity
  8
0
  6
Continuous
 62
     7
370
    15
100
AcDbCircle
 10
-21.8674081459
 20
60.9475392745
 30
0.0
 40
1.000000000000021
100
AcDbArc
 50
270.0
 51
0.0
  0
ARC
  5
58C
330
23
100
AcDbEntity
  8
0
  6
Continuous
 62
     7
370
    15
100
AcDbCircle
 10
-5.8507665443
 20
60.4610425497
 30
0.0
 40
10.00000000000016
100
AcDbArc
 50
3.3059435837
 51
66.7294648351
  0
ARC
  5
58D
330
23
100
AcDbEntity
  8
0
  6
Continuous
 62
     7
370
    15
100
AcDbCircle
 10
-10.8840497476
 20
60.4610425497
 30
0.0
 40
10.00000000000018
100
AcDbArc
 50
113.2705351649
 51
176.6940564163
  0
ARC
  5
58E
330
23
100
AcDbEntity
  8
0
  6
Continuous
 62
     7
370
    15
100
AcDbCircle
 10
-11.509951131
 20
1312.1444077404
 30
0.0
 40
38.77557642427203
100
AcDbArc
 50
84.1834907827
 51
85.7049339408
  0
ARC
  5
58F
330
23
100
AcDbEntity
  8
0
  6
Continuous
 62
     7
370
    15
100
AcDbCircle
 10
-7.6385845562
 20
1356.2590889018
 30
0.0
 40
9.322265138464905
100
AcDbArc
 50
261.7785049102
 51
268.1099198132
  0
ARC
  5
590
330
23
100
AcDbEntity
  8
0
  6
Continuous
 62
     7
370
    15
100
AcDbCircle
 10
-8.2541914312
 20
1348.8424955288
 30
0.0
 40
1.000074289799336
100
AcDbArc
 50
294.2683286979
 51
322.6364031561
  0
ARC
  5
591
330
23
100
AcDbEntity
  8
0
  6
Continuous
 62
     7
370
    15
100
AcDbCircle
 10
-6.4623934972
 20
1368.5042152622
 30
0.0
 40
20.29313883088011
100
AcDbArc
 50
267.1841038586
 51
270.324851789
  0
ARC
  5
592
330
23
100
AcDbEntity
  8
0
  6
Continuous
 62
     7
370
    15
100
AcDbCircle
 10
-18.6857054058
 20
1349.9005430384
 30
0.0
 40
12.45345412946694
100
AcDbArc
 50
352.204584379
 51
356.7380392864
  0
ARC
  5
593
330
23
100
AcDbEntity
  8
0
  6
Continuous
 62
     7
370
    15
100
AcDbCircle
 10
-6.3674842573
 20
1369.4847391606
 30
0.0
 40
20.29313883077824
100
AcDbArc
 50
267.1841038586
 51
270.324851789
  0
ARC
  5
594
330
23
100
AcDbEntity
  8
0
  6
Continuous
 62
     7
370
    15
100
AcDbCircle
 10
-8.2375571776
 20
1348.779483337
 30
0.0
 40
0.976217552938167
100
AcDbArc
 50
26.5678244217
 51
55.4002693668
  0
ARC
  5
595
330
23
100
AcDbEntity
  8
0
  6
Continuous
 62
     7
370
    15
100
AcDbCircle
 10
-8.2977988672
 20
1348.7620840777
 30
0.0
 40
1.000074289797016
100
AcDbArc
 50
114.2683286979
 51
142.6364031561
  0
ARC
  5
596
330
23
100
AcDbEntity
  8
0
  6
Continuous
 62
     7
370
    15
100
AcDbCircle
 10
-6.4267013035
 20
1370.2155894577
 30
0.0
 40
21.01636535119062
100
AcDbArc
 50
259.644081376
 51
262.7123112096
  0
ARC
  5
597
330
23
100
AcDbEntity
  8
0
  6
Continuous
 62
     7
370
    15
100
AcDbCircle
 10
3.6232945596
 20
1347.7082559218
 30
0.0
 40
13.94894995509008
100
AcDbArc
 50
172.4477121036
 51
176.4949115618
  0
ARC
  5
598
330
23
100
AcDbEntity
  8
0
  6
Continuous
 62
     7
370
    15
100
AcDbCircle
 10
-6.5216105435
 20
1369.2350655591
 30
0.0
 40
21.01636535111954
100
AcDbArc
 50
259.644081376
 51
262.7123112096
  0
ARC
  5
599
330
23
100
AcDbEntity
  8
0
  6
Continuous
 62
     7
370
    15
100
AcDbCircle
 10
-8.3144331209
 20
1348.8250962694
 30
0.0
 40
0.9762175529364151
100
AcDbArc
 50
206.5678244217
 51
235.4002693668
  0
ARC
  5
59A
330
23
100
AcDbEntity
  8
0
  6
Continuous
 62
     7
370
    15
100
AcDbCircle
 10
-8.3090453268
 20
1349.4851613746
 30
0.0
 40
0.8231160318646522
100
AcDbArc
 50
213.1687473634
 51
228.7993464252
  0
ARC
  5
59B
330
23
100
AcDbEntity
  8
0
  6
Continuous
 62
     7
370
    15
100
AcDbCircle
 10
-8.2571118507
 20
1349.4999797853
 30
0.0
 40
0.8435835389751682
100
AcDbArc
 50
300.764317583
 51
316.1404142711
  0
ARC
  5
59C
330
23
100
AcDbEntity
  8
0
  6
Continuous
 62
     7
370
    15
100
AcDbCircle
 10
-8.2759951492
 20
1349.5541633926
 30
0.0
 40
4.002248055617093
100
AcDbArc
 50
1.9204786589
 51
178.0795213411
  0
ARC
  5
59D
330
23
100
AcDbEntity
  8
0
  6
Continuous
 62
     7
370
    15
100
AcDbCircle
 10
-8.2765820369
 20
1349.3985934414
 30
0.0
 40
0.8807027447716193
100
AcDbArc
 50
49.1696847002
 51
115.9074458121
  0
ARC
  5
59E
330
23
100
AcDbEntity
  8
0
  6
Continuous
 62
     7
370
    15
100
AcDbCircle
 10
-8.2233391594
 20
1349.4706954536
 30
0.0
 40
0.7989444257919044
100
AcDbArc
 50
315.9764965815
 51
350.3337219745
  0
ARC
  5
59F
330
23
100
AcDbEntity
  8
0
  6
Continuous
 62
     7
370
    15
100
AcDbCircle
 10
-8.2754805298
 20
1349.5319114412
 30
0.0
 40
0.880417622675004
100
AcDbArc
 50
229.1598660936
 51
300.7285586297
  0
ARC
  5
5A0
330
23
100
AcDbEntity
  8
0
  6
Continuous
 62
     7
370
    15
100
AcDbCircle
 10
-8.3371120879
 20
1349.4677061488
 30
0.0
 40
0.7900728678528784
100
AcDbArc
 50
186.9055559735
 51
213.2227304107
  0
VIEWPORT
  5
5D3
330
23
100
AcDbEntity
  8
0
100
AcDbViewport
 10
0.0
 20
0.0
 30
0.0
 40
205.6
 41
156.0
 68
     1
 69
     1
 12
0.2845061149
 22
625.3951180348
 13
0.0
 23
0.0
 14
10.0
 24
10.0
 15
10.0
 25
10.0
 16
0.0
 26
0.0
 36
1.0
 17
0.0
 27
0.0
 37
0.0
 42
50.0
 43
0.0
 44
0.0
 45
1493.794939329
 50
0.0
 51
0.0
 72
   100
 90
   557152
  1

281
     0
 71
     1
 74
     0
110
0.0
120
0.0
130
0.0
111
1.0
121
0.0
131
0.0
112
0.0
122
1.0
132
0.0
 79
     0
146
0.0
  0
ENDBLK
  5
25
330
23
100
AcDbEntity
  8
0
100
AcDbBlockEnd
  0
BLOCK
  5
5A3
330
5A1
100
AcDbEntity
  8
0
100
AcDbBlockBegin
  2
*Paper_Space1
 70
     0
 10
0.0
 20
0.0
 30
0.0
  3
*Paper_Space1
  1
*Paper_Space1
  0
CIRCLE
  5
5A5
330
5A1
100
AcDbEntity
  8
0
  6
Continuous
 62
     7
370
    15
100
AcDbCircle
 10
0.2845061149
 20
-8.3674081459
 30
0.0
 40
50.0051568601865
  0
SPLINE
  5
5AA
330
5A1
100
AcDbEntity
  8
0
  6
Continuous
 62
     7
370
    15
100
AcDbSpline
210
0.0
220
0.0
230
1.0
 70
     8
 71
     3
 72
     9
 73
     5
 74
     0
 42
0.000000001
 43
0.00000001
 40
0.0
 40
0.0
 40
0.0
 40
0.0
 40
0.5710471531757535
 40
1.0
 40
1.0
 40
1.0
 40
1.0
 10
-49.9775210928172
 20
-3.897525289538907
 30
0.0
 10
-50.084981696832
 20
-3.902060161011742
 30
0.0
 10
-50.27316336172113
 20
-3.910001486780754
 30
0.0
 10
-50.41280922867072
 20
-4.027275028202089
 30
0.0
 10
-50.47271072084599
 20
-4.077579847651932
 30
0.0
  0
CIRCLE
  5
5B2
330
5A1
100
AcDbEntity
  8
0
  6
Continuous
 62
     7
370
    15
100
AcDbCircle
 10
0.2845061149
 20
-8.3674081459
 30
0.0
 40
70.49999999999997
  0
CIRCLE
  5
5B3
330
5A1
100
AcDbEntity
  8
0
  6
Continuous
 62
     7
370
    15
100
AcDbCircle
 10
0.2845061149
 20
-8.3674081459
 30
0.0
 40
67.25
  0
CIRCLE
  5
5B4
330
5A1
100
AcDbEntity
  8
0
  6
Continuous
 62
     7
370
    15
100
AcDbCircle
 10
0.2845061149
 20
-8.3674081459
 30
0.0
 40
49.99999999999996
  0
LWPOLYLINE
  5
5B7
330
5A1
100
AcDbEntity
  8
0
  6
Continuous
 62
     7
370
    15
100
AcDbPolyline
 90
       10
 70
   128
 43
0.0
 10
-50.3532328706
 20
-11.7013399356
 10
-50.6507164173
 20
-11.4569442746
 10
-50.9558946942
 20
-10.848186298
 10
-51.1909691503
 20
-9.9476489876
 10
-51.3329290599
 20
-8.8434832097
 10
-51.3678783981
 20
-7.6437724039
 10
-51.29239608
 20
-6.4659526226
 10
-51.113870841
 20
-5.4253170725
 10
-50.8497779753
 20
-4.6237304117
 10
-50.5259687325
 20
-4.1396575276
  0
LWPOLYLINE
  5
5B9
330
5A1
100
AcDbEntity
  8
0
  6
Continuous
 62
     7
370
    15
100
AcDbPolyline
 90
       12
 70
   128
 43
0.0
 10
51.5191402548
 20
-4.4453694025
 10
51.6450955389
 20
-4.5170427508
 10
51.9735704951
 20
-4.9630690442
 10
52.2455486055
 20
-5.7333876272
 10
52.4344067575
 20
-6.7525943499
 10
52.5216581994
 20
-7.9209221569
 10
52.4987621522
 20
-9.1240069824
 10
52.3679598404
 20
-10.2440825012
 10
52.1420551058
 20
-11.1715079176
 10
51.8431610777
 20
-11.8155003699
 10
51.500535586
 20
-12.1130213901
 10
51.4286210943
 20
-12.127849276
  0
CIRCLE
  5
5BB
330
5A1
100
AcDbEntity
  8
0
  6
Continuous
 62
     7
370
    15
100
AcDbCircle
 10
0.2845061149
 20
-8.3674081459
 30
0.0
 40
67.25006809028841
  0
CIRCLE
  5
5BC
330
5A1
100
AcDbEntity
  8
0
  6
Continuous
 62
     7
370
    15
100
AcDbCircle
 10
0.2845061149
 20
-8.3674081459
 30
0.0
 40
68.49999999999996
  0
CIRCLE
  5
5BD
330
5A1
100
AcDbEntity
  8
0
  6
Continuous
 62
     7
370
    15
100
AcDbCircle
 10
0.2845061149
 20
-8.3674081459
 30
0.0
 40
67.49999999999999
  0
LWPOLYLINE
  5
5BF
330
5A1
100
AcDbEntity
  8
0
  6
Continuous
 62
     8
370
    15
100
AcDbPolyline
 90
       11
 70
   128
 43
0.0
 10
-49.9625536217
 20
-11.8674081459
 10
-50.1872123284
 20
-11.7933649956
 10
-50.5165923625
 20
-11.3931427346
 10
-50.796743623
 20
-10.6796434829
 10
-51.0027734412
 20
-9.7162647802
 10
-51.1163751635
 20
-8.588607052
 10
-51.1274547784
 20
-7.396867636
 10
-51.0350278134
 20
-6.2469378093
 10
-50.8473068099
 20
-5.2409938834
 10
-50.5809716031
 20
-4.4684183905
 10
-50.2596872447
 20
-3.9978580535
  0
LWPOLYLINE
  5
5C0
330
5A1
100
AcDbEntity
  8
0
  6
Continuous
 62
     8
370
    15
100
AcDbPolyline
 90
       12
 70
   128
 43
0.0
 10
51.1432706367
 20
-4.2768348124
 10
51.3602387036
 20
-4.3613247097
 10
51.6879170381
 20
-4.7774723555
 10
51.9650656054
 20
-5.5044791046
 10
52.1670585391
 20
-6.4777472169
 10
52.2759478805
 20
-7.6107975494
 10
52.2820583339
 20
-8.8029536079
 10
52.1848469586
 20
-9.9482870947
 10
51.9929514119
 20
-10.9450301035
 10
51.7234224553
 20
-11.7046176438
 10
51.4002089194
 20
-12.1595570291
 10
51.1192364351
 20
-12.2759951492
  0
LINE
  5
5C1
330
5A1
100
AcDbEntity
  8
0
  6
Continuous
 62
     7
370
    15
100
AcDbLine
 10
-49.9625536217
 20
-11.8674081459
 30
0.0
 11
-49.5980129936
 21
-11.8674081459
 31
0.0
  0
LINE
  5
5C2
330
5A1
100
AcDbEntity
  8
0
  6
Continuous
 62
     7
370
    15
100
AcDbLine
 10
-49.5177600244
 20
-3.8674081459
 30
0.0
 11
-49.9625536217
 21
-3.8674081459
 31
0.0
  0
LINE
  5
5C3
330
5A1
100
AcDbEntity
  8
0
  6
Continuous
 62
     7
370
    15
100
AcDbLine
 10
51.1192364351
 20
-4.2759951492
 30
0.0
 11
50.1220025639
 21
-4.2759951492
 31
0.0
  0
LINE
  5
5C4
330
5A1
100
AcDbEntity
  8
0
  6
Continuous
 62
     7
370
    15
100
AcDbLine
 10
50.1366741746
 20
-12.2759951492
 30
0.0
 11
51.1192364351
 21
-12.2759951492
 31
0.0
  0
LINE
  5
5C5
330
5A1
100
AcDbEntity
  8
0
  6
Continuous
 62
     7
370
    15
100
AcDbLine
 10
-50.1751179161
 20
-11.8109328701
 30
0.0
 11
-49.9826744541
 21
-11.8318276405
 31
0.0
  0
LINE
  5
5C6
330
5A1
100
AcDbEntity
  8
0
  6
Continuous
 62
     7
370
    15
100
AcDbLine
 10
51.3463848429
 20
-4.350530506
 30
0.0
 11
51.1660293785
 21
-4.2810260163
 31
0.0
  0
LINE
  5
5C7
330
5A1
100
AcDbEntity
  8
0
  6
Continuous
 62
     7
370
    15
100
AcDbLine
 10
51.1067278895
 20
-12.2413595236
 30
0.0
 11
51.2294788591
 21
-12.2336602279
 31
0.0
  0
LINE
  5
5C8
330
5A1
100
AcDbEntity
  8
0
  6
Continuous
 62
     7
370
    15
100
AcDbLine
 10
51.1192364351
 20
-4.2759951492
 30
0.0
 11
51.1432706367
 21
-4.2768348124
 31
0.0
  0
LINE
  5
5C9
330
5A1
100
AcDbEntity
  8
0
  6
Continuous
 62
     8
370
    15
100
AcDbLine
 10
-50.2596872447
 20
-3.9978580535
 30
0.0
 11
-49.9625536217
 21
-3.8674081459
 31
0.0
  0
ARC
  5
5CA
330
5A1
100
AcDbEntity
  8
0
  6
Continuous
 62
     7
370
    15
100
AcDbCircle
 10
-45.2352663989
 20
-7.8674081459
 30
0.0
 40
6.500000000000103
100
AcDbArc
 50
185.4966334026
 51
212.6096666725
  0
ARC
  5
5CB
330
5A1
100
AcDbEntity
  8
0
  6
Continuous
 62
     7
370
    15
100
AcDbCircle
 10
-45.2352663989
 20
-7.8674081459
 30
0.0
 40
6.499999999999966
100
AcDbArc
 50
147.3903333275
 51
179.706922037
  0
ARC
  5
5CC
330
5A1
100
AcDbEntity
  8
0
  6
Continuous
 62
     7
370
    15
100
AcDbCircle
 10
46.3919492123
 20
-8.2759951492
 30
0.0
 40
6.500000000000123
100
AcDbArc
 50
6.1166369392
 51
32.6096666725
  0
ARC
  5
5CD
330
5A1
100
AcDbEntity
  8
0
  6
Continuous
 62
     7
370
    15
100
AcDbCircle
 10
46.3919492123
 20
-8.2759951492
 30
0.0
 40
6.499999999999996
100
AcDbArc
 50
327.3903333275
 51
356.9923856406
  0
ARC
  5
5CE
330
5A1
100
AcDbEntity
  8
0
  6
Continuous
 62
     7
370
    15
100
AcDbCircle
 10
41.7711211353
 20
-8.2809241
 30
0.0
 40
9.124767658810862
100
AcDbArc
 50
336.9613970733
 51
23.27748304
  0
ARC
  5
5CF
330
5A1
100
AcDbEntity
  8
0
  6
Continuous
 62
     7
370
    15
100
AcDbCircle
 10
-45.5890396552
 20
-7.9020106993
 30
0.0
 40
6.144538995098105
100
AcDbArc
 50
179.7191648872
 51
185.4914444836
  0
ARC
  5
5D0
330
5A1
100
AcDbEntity
  8
0
  6
Continuous
 62
     7
370
    15
100
AcDbCircle
 10
46.4286440157
 20
-8.2678915718
 30
0.0
 40
6.46255589358949
100
AcDbArc
 50
357.0015813688
 51
6.107441211
  0
VIEWPORT
  5
5D5
330
5A1
100
AcDbEntity
  8
0
100
AcDbViewport
 10
0.0
 20
0.0
 30
0.0
 40
205.6
 41
156.0
 68
     1
 69
     1
 12
0.2845061149
 22
625.3951180348
 13
0.0
 23
0.0
 14
10.0
 24
10.0
 15
10.0
 25
10.0
 16
0.0
 26
0.0
 36
1.0
 17
0.0
 27
0.0
 37
0.0
 42
50.0
 43
0.0
 44
0.0
 45
1493.794939329
 50
0.0
 51
0.0
 72
   100
 90
   557152
  1

281
     0
 71
     1
 74
     0
110
0.0
120
0.0
130
0.0
111
1.0
121
0.0
131
0.0
112
0.0
122
1.0
132
0.0
 79
     0
146
0.0
  0
ENDBLK
  5
5A4
330
5A1
100
AcDbEntity
  8
0
100
AcDbBlockEnd
  0
ENDSEC
  0
SECTION
  2
ENTITIES
  0
SPLINE
  5
A2
330
1F
100
AcDbEntity
  8
0
  6
Continuous
 62
     7
370
    15
100
AcDbSpline
210
0.0
220
0.0
230
1.0
 70
     8
 71
     3
 72
    51
 73
    47
 74
     0
 42
0.000000001
 43
0.00000001
 40
0.0
 40
0.0
 40
0.0
 40
0.0
 40
0.0052990432569139
 40
0.0155980416758161
 40
0.0248739890477773
 40
0.033131356940119
 40
0.0403728502993877
 40
0.0453509849762254
 40
0.0497033998927377
 40
0.0536517120110345
 40
0.0576218739358528
 40
0.0616245643066109
 40
0.079891643282612
 40
0.0985286057188989
 40
0.1318169500403716
 40
0.1651071874147559
 40
0.2047290110461503
 40
0.2443436535977517
 40
0.2839594837384628
 40
0.3370188277672435
 40
0.3900824657030832
 40
0.443150200697332
 40
0.4962175373004055
 40
0.5412439878324327
 40
0.5862701666455179
 40
0.6312955751786985
 40
0.6763194143576573
 40
0.7213421958575751
 40
0.7663677725290765
 40
0.825802859935382
 40
0.885235999912275
 40
0.893952550283139
 40
0.9026690335383453
 40
0.9112339476693518
 40
0.9194208733807128
 40
0.9272278126303548
 40
0.9347763472225454
 40
0.9394896460691087
 40
0.9450333838479248
 40
0.9514076155424116
 40
0.9586124791167953
 40
0.9666482419948362
 40
0.9753497297562801
 40
0.9848538486533099
 40
0.9951616619945165
 40
1.0
 40
1.0
 40
1.0
 40
1.0
 10
4.06685267632483
 20
86.14723782922906
 30
0.0
 10
4.230943704430991
 20
88.26166069269081
 30
0.0
 10
4.713955178566052
 20
94.48558722915467
 30
0.0
 10
5.23731521545049
 20
104.4277942095047
 30
0.0
 10
5.694559908011113
 20
115.5572782230788
 30
0.0
 10
5.96278022840023
 20
125.4691316424046
 30
0.0
 10
6.099093427239004
 20
133.6632267891304
 30
0.0
 10
6.156769294413451
 20
140.2953392589883
 30
0.0
 10
6.172651377491993
 20
145.6096891054607
 30
0.0
 10
6.163420743177347
 20
150.5206447953603
 30
0.0
 10
6.133252047266943
 20
155.2915499491254
 30
0.0
 10
6.02192958709227
 20
165.7924974752507
 30
0.0
 10
5.662046395158119
 20
182.1607672705907
 30
0.0
 10
4.633207143060459
 20
210.2343954484886
 30
0.0
 10
2.893010041954604
 20
244.2952027962715
 30
0.0
 10
0.5110577299435103
 20
286.7305321903729
 30
0.0
 10
-1.500623289329113
 20
331.7233719940231
 30
0.0
 10
-2.433615900883894
 20
379.2846991343648
 30
0.0
 10
-2.46196242612025
 20
432.2309457141216
 30
0.0
 10
-1.395388474287129
 20
490.5511159555428
 30
0.0
 10
0.7133065253229346
 20
554.2273321732368
 30
0.0
 10
3.354551395777754
 20
617.8859228370599
 30
0.0
 10
5.981700360245127
 20
678.3253541609699
 30
0.0
 10
8.28545425301729
 20
735.5574372978589
 30
0.0
 10
10.08858287328998
 20
789.5878055810082
 30
0.0
 10
11.30547946767487
 20
843.6342245687796
 30
0.0
 10
11.7332122856278
 20
897.6924256175728
 30
0.0
 10
11.12118197800947
 20
951.7504478566735
 30
0.0
 10
9.22174107558785
 20
1011.547951142764
 30
0.0
 10
6.369125353143174
 20
1077.077813406267
 30
0.0
 10
4.253544148398726
 20
1128.095988391098
 30
0.0
 10
3.297155361590023
 20
1158.843897813317
 30
0.0
 10
3.004714621142277
 20
1169.244473289258
 30
0.0
 10
2.751843646710624
 20
1179.434066695985
 30
0.0
 10
2.542598442357734
 20
1189.260560309933
 30
0.0
 10
2.376459632577007
 20
1198.681050049433
 30
0.0
 10
2.265197123344477
 20
1206.712049632056
 30
0.0
 10
2.189481504856178
 20
1213.837644276462
 30
0.0
 10
2.137450389610044
 20
1220.493472803469
 30
0.0
 10
2.103754551011983
 20
1228.146589044746
 30
0.0
 10
2.100909817318533
 20
1236.797128545382
 30
0.0
 10
2.144341127150203
 20
1246.378970649379
 30
0.0
 10
2.249442870163585
 20
1256.880622762544
 30
0.0
 10
2.442958011392858
 20
1268.290393996214
 30
0.0
 10
2.664351911813521
 20
1278.15346836715
 30
0.0
 10
2.869372022662777
 20
1284.211684683137
 30
0.0
 10
2.934864342890196
 20
1286.146941870005
 30
0.0
  0
SPLINE
  5
A3
330
1F
100
AcDbEntity
  8
0
  6
Continuous
 62
     7
370
    15
100
AcDbSpline
210
0.0
220
0.0
230
1.0
 70
     8
 71
     3
 72
    53
 73
    49
 74
     0
 42
0.000000001
 43
0.00000001
 40
0.0
 40
0.0
 40
0.0
 40
0.0
 40
0.0052921613125081
 40
0.0155798272595114
 40
0.0248503755097176
 40
0.0331049172437702
 40
0.0403441878499883
 40
0.0453202629426374
 40
0.0496700188832737
 40
0.0536185247243542
 40
0.0575895176470231
 40
0.0615929183689566
 40
0.0798607878333798
 40
0.0984935287765678
 40
0.1317701198911124
 40
0.1650480298204614
 40
0.2046649182772398
 40
0.2442795944332428
 40
0.2838911890567675
 40
0.3263298223469409
 40
0.3687697429118629
 40
0.4112109955867672
 40
0.45365364680444
 40
0.4960975214453451
 40
0.5411142315039836
 40
0.5861314444062417
 40
0.6311492365714477
 40
0.6761688697804125
 40
0.7211871829233367
 40
0.7662032550141284
 40
0.8058162853320503
 40
0.8454336173880341
 40
0.8850531134316728
 40
0.8937688065859761
 40
0.9024840725234119
 40
0.9110504289053588
 40
0.9192379796074343
 40
0.927044598139118
 40
0.9345867617660686
 40
0.9392888962135479
 40
0.9448217160054693
 40
0.9511852729511123
 40
0.9583799099595992
 40
0.9664064660659045
 40
0.9751010370748346
 40
0.9846023434071122
 40
0.994914749263143
 40
0.9999999999999999
 40
0.9999999999999999
 40
0.9999999999999999
 40
0.9999999999999999
 10
-3.043674711449158
 20
1286.148259043229
 30
0.0
 10
-3.114625593414637
 20
1284.031456453363
 30
0.0
 10
-3.32350102627786
 20
1277.799707883144
 30
0.0
 10
-3.543271058798684
 20
1267.85650004549
 30
0.0
 10
-3.728707042470525
 20
1256.727050110186
 30
0.0
 10
-3.827927342666086
 20
1246.816499311377
 30
0.0
 10
-3.868507480786814
 20
1238.624296075459
 30
0.0
 10
-3.87539016611212
 20
1231.994749573212
 30
0.0
 10
-3.865729459187127
 20
1226.682214158018
 30
0.0
 10
-3.844677485041605
 20
1221.77196200876
 30
0.0
 10
-3.813319039430486
 20
1217.000382750747
 30
0.0
 10
-3.720877531679382
 20
1206.498337230514
 30
0.0
 10
-3.478088228057481
 20
1190.129626043114
 30
0.0
 10
-2.823323284214477
 20
1162.051296881258
 30
0.0
 10
-1.695474987664896
 20
1127.976397427805
 30
0.0
 10
0.0317144240197916
 20
1085.520425191177
 30
0.0
 10
1.991869745726198
 20
1040.535561736289
 30
0.0
 10
3.874556726791642
 20
993.0102152186648
 30
0.0
 10
5.277027620714359
 20
944.3367992303498
 30
0.0
 10
5.748624352514711
 20
894.5132925018023
 30
0.0
 10
5.323187547649683
 20
843.558196390881
 30
0.0
 10
4.188955404986722
 20
792.6131574889596
 30
0.0
 10
2.522961899754455
 20
741.6817766913068
 30
0.0
 10
0.4665763619273858
 20
689.7335268964102
 30
0.0
 10
-1.81202941534866
 20
636.7634116946405
 30
0.0
 10
-4.115493863482111
 20
582.7632872564333
 30
0.0
 10
-6.164417489954155
 20
528.7513369136511
 30
0.0
 10
-7.707201620321423
 20
474.7213730590132
 30
0.0
 10
-8.499687235023373
 20
420.6746542584652
 30
0.0
 10
-8.297973867707702
 20
368.7851978698017
 30
0.0
 10
-7.035237812267138
 20
319.0714402413758
 30
0.0
 10
-4.652630235636686
 20
271.5637202642676
 30
0.0
 10
-2.667803366714731
 20
236.4202682592803
 30
0.0
 10
-1.574071055231448
 20
213.6141532005425
 30
0.0
 10
-1.117219967455953
 20
203.219742753497
 30
0.0
 10
-0.7198566249367775
 20
193.0343926385583
 30
0.0
 10
-0.3925822101585226
 20
183.2103861872403
 30
0.0
 10
-0.1379936089857154
 20
173.7942586216181
 30
0.0
 10
0.0244789891347769
 20
165.7712305244798
 30
0.0
 10
0.1258340113502238
 20
158.6573271770858
 30
0.0
 10
0.1851134338034819
 20
152.0146416813967
 30
0.0
 10
0.2027729662129084
 20
144.3741592205902
 30
0.0
 10
0.1530876930705664
 20
135.7357219551805
 30
0.0
 10
0.0038900591981977
 20
126.1653777457209
 30
0.0
 10
-0.2783142135924443
 20
115.6742810276372
 30
0.0
 10
-0.7521395319232951
 20
104.2747052952318
 30
0.0
 10
-1.283741828588048
 20
94.32290433621627
 30
0.0
 10
-1.765425716486041
 20
88.17932168223963
 30
0.0
 10
-1.924507283936816
 20
86.15033382752246
 30
0.0
  0
SPLINE
  5
A7
330
1F
100
AcDbEntity
  8
0
  6
Continuous
 62
     7
370
    15
100
AcDbSpline
210
0.0
220
0.0
230
1.0
 70
     8
 71
     3
 72
    12
 73
     8
 74
     0
 42
0.000000001
 43
0.00000001
 40
0.0
 40
0.0
 40
0.0
 40
0.0
 40
0.09003297060001
 40
0.3631467876042592
 40
0.6368338696977461
 40
0.9119288392990932
 40
1.0
 40
1.0
 40
1.0
 40
1.0
 10
49.88873651853791
 20
1351.676522444699
 30
0.0
 10
49.88953394996795
 20
1351.679992589687
 30
0.0
 10
49.89275037901859
 20
1351.693989373268
 30
0.0
 10
49.85521739433008
 20
1351.491791909321
 30
0.0
 10
49.77900524115716
 20
1351.091999090476
 30
0.0
 10
49.69314866239355
 20
1350.653481845771
 30
0.0
 10
49.63813571668945
 20
1350.37920287471
 30
0.0
 10
49.62479456624211
 20
1350.312687675958
 30
0.0
  0
SPLINE
  5
A8
330
1F
100
AcDbEntity
  8
0
  6
Continuous
 62
     7
370
    15
100
AcDbSpline
210
0.0
220
0.0
230
1.0
 70
     8
 71
     3
 72
    24
 73
    20
 74
     0
 42
0.000000001
 43
0.00000001
 40
0.0
 40
0.0
 40
0.0
 40
0.0
 40
0.0078125000000711
 40
0.0078125000000711
 40
0.0156250000001422
 40
0.0156250000001422
 40
0.0312500000000625
 40
0.0312500000000625
 40
0.0625000000001113
 40
0.0625000000001113
 40
0.1250000000000089
 40
0.1250000000000089
 40
0.2500000000000077
 40
0.2500000000000077
 40
0.5000000000000051
 40
0.5000000000000051
 40
0.7500000000000026
 40
0.7500000000000026
 40
1.0
 40
1.0
 40
1.0
 40
1.0
 10
49.12914482252262
 20
1348.014884174346
 30
0.0
 10
49.13009479140461
 20
1348.017981072902
 30
0.0
 10
49.13217979643797
 20
1348.026057025903
 30
0.0
 10
49.1353128010034
 20
1348.038585264374
 30
0.0
 10
49.13672014354944
 20
1348.044351329798
 30
0.0
 10
49.14084139114978
 20
1348.06134703389
 30
0.0
 10
49.14338535113895
 20
1348.072025496228
 30
0.0
 10
49.15084655710936
 20
1348.103522734121
 30
0.0
 10
49.15558781075853
 20
1348.123818854051
 30
0.0
 10
49.1697416949191
 20
1348.184745995401
 30
0.0
 10
49.17903478406014
 20
1348.225247124285
 30
0.0
 10
49.20725094034765
 20
1348.349015728824
 30
0.0
 10
49.22644999862747
 20
1348.434336582252
 30
0.0
 10
49.2861494159296
 20
1348.702185220825
 30
0.0
 10
49.32749744899898
 20
1348.89104552314
 30
0.0
 10
49.41301160906873
 20
1349.288391010624
 30
0.0
 10
49.45707727369924
 20
1349.496590448274
 30
0.0
 10
49.54254192923857
 20
1349.907284446554
 30
0.0
 10
49.58520081470073
 20
1350.115866937124
 30
0.0
 10
49.62479456624471
 20
1350.312687675957
 30
0.0
  0
SPLINE
  5
A9
330
1F
100
AcDbEntity
  8
0
  6
Continuous
 62
     7
370
    15
100
AcDbSpline
210
0.0
220
0.0
230
1.0
 70
     8
 71
     3
 72
    10
 73
     6
 74
     0
 42
0.000000001
 43
0.00000001
 40
0.0
 40
0.0
 40
0.0
 40
0.0
 40
0.3014994117043995
 40
0.8497150045946013
 40
1.0
 40
1.0
 40
1.0
 40
1.0
 10
48.69913516476771
 20
1346.613052690065
 30
0.0
 10
48.66838874699219
 20
1346.483715057654
 30
0.0
 10
48.58173619807435
 20
1346.119203146012
 30
0.0
 10
48.51226653227079
 20
1345.837452227985
 30
0.0
 10
48.52265397971557
 20
1345.885050148486
 30
0.0
 10
48.52488887760639
 20
1345.895291017833
 30
0.0
  0
SPLINE
  5
AC
330
1F
100
AcDbEntity
  8
0
  6
Continuous
 62
     7
370
    15
100
AcDbSpline
210
0.0
220
0.0
230
1.0
 70
     8
 71
     3
 72
    15
 73
    11
 74
     0
 42
0.000000001
 43
0.00000001
 40
0.0
 40
0.0
 40
0.0
 40
0.0
 40
0.0894096061257298
 40
0.2247305106289889
 40
0.3600782642750771
 40
0.4956419180059521
 40
0.6316748390342545
 40
0.768321295263265
 40
0.9053687108276424
 40
1.0
 40
1.0
 40
1.0
 40
1.0
 10
-47.98623933431898
 20
1345.990997070008
 30
0.0
 10
-47.99761607809745
 20
1346.026110260873
 30
0.0
 10
-48.02621145559002
 20
1346.114367056253
 30
0.0
 10
-48.18450109712927
 20
1346.741570952404
 30
0.0
 10
-48.41907078867817
 20
1347.732437436781
 30
0.0
 10
-48.69509525130972
 20
1348.977722670715
 30
0.0
 10
-48.97246665600239
 20
1350.32182450545
 30
0.0
 10
-49.21945058241777
 20
1351.613286883818
 30
0.0
 10
-49.39671759961641
 20
1352.617045314985
 30
0.0
 10
-49.46682564385488
 20
1353.050057679791
 30
0.0
 10
-49.4954619167276
 20
1353.226925546675
 30
0.0
  0
SPLINE
  5
AE
330
1F
100
AcDbEntity
  8
0
  6
Continuous
 62
     7
370
    15
100
AcDbSpline
210
0.0
220
0.0
230
1.0
 70
     8
 71
     3
 72
    10
 73
     6
 74
     0
 42
0.000000001
 43
0.00000001
 40
0.1199535322490981
 40
0.1199535322490981
 40
0.1199535322490981
 40
0.1199535322490981
 40
0.2978743444060243
 40
0.6595758240712158
 40
0.8800448437472773
 40
0.8800448437472773
 40
0.8800448437472773
 40
0.8800448437472773
 10
-7.427082090318329
 20
52.24762126654525
 30
0.0
 10
-6.326799805262981
 20
52.2475852687101
 30
0.0
 10
-2.77420503561167
 20
52.24752123882826
 30
0.0
 10
2.743224879495515
 20
52.24755257583047
 30
0.0
 10
6.632646016491268
 20
52.2475383626233
 30
0.0
 10
7.996598119762561
 20
52.24751601247868
 30
0.0
  0
SPLINE
  5
AF
330
1F
100
AcDbEntity
  8
0
  6
Continuous
 62
     7
370
    15
100
AcDbSpline
210
0.0
220
0.0
230
1.0
 70
     8
 71
     3
 72
    10
 73
     6
 74
     0
 42
0.000000001
 43
0.00000001
 40
0.1199535322508421
 40
0.1199535322508421
 40
0.1199535322508421
 40
0.1199535322508421
 40
0.3404225519289468
 40
0.7021240315941384
 40
0.8800448437493206
 40
0.8800448437493206
 40
0.8800448437493206
 40
0.8800448437493206
 10
7.996459741003513
 20
57.04751588551493
 30
0.0
 10
6.632555018002796
 20
57.04753824324926
 30
0.0
 10
2.743231363171736
 20
57.04755247120053
 30
0.0
 10
-2.774182692816965
 20
57.04752113257594
 30
0.0
 10
-6.326841341755096
 20
57.04758514780917
 30
0.0
 10
-7.427152138080212
 20
57.04762113949946
 30
0.0
  0
SPLINE
  5
B0
330
1F
100
AcDbEntity
  8
0
  6
Continuous
 62
     7
370
    15
100
AcDbSpline
210
0.0
220
0.0
230
1.0
 70
     8
 71
     3
 72
    10
 73
     6
 74
     0
 42
0.000000001
 43
0.00000001
 40
0.0
 40
0.0
 40
0.0
 40
0.0
 40
0.2503522887172463
 40
0.5003527988435447
 40
0.6249999999981101
 40
0.6249999999981101
 40
0.6249999999981101
 40
0.6249999999981101
 10
9.347312975578838
 20
55.47668304349229
 30
0.0
 10
9.282154127408843
 20
55.50902135106328
 30
0.0
 10
9.129156568601942
 20
55.50893396766987
 30
0.0
 10
8.991873804797365
 20
55.34725440991972
 30
0.0
 10
8.970234223696352
 20
55.21808256105576
 30
0.0
 10
8.970235205161842
 20
55.17563383088653
 30
0.0
  0
SPLINE
  5
B1
330
1F
100
AcDbEntity
  8
0
  6
Continuous
 62
     7
370
    15
100
AcDbSpline
210
0.0
220
0.0
230
1.0
 70
     8
 71
     3
 72
    10
 73
     6
 74
     0
 42
0.000000001
 43
0.00000001
 40
0.3749999999954591
 40
0.3749999999954591
 40
0.3749999999954591
 40
0.3749999999954591
 40
0.4996469786218535
 40
0.749646970730288
 40
1.0
 40
1.0
 40
1.0
 40
1.0
 10
8.970235205161842
 20
55.17563383088653
 30
0.0
 10
8.970237313130077
 20
55.13318516576404
 30
0.0
 10
8.991886232834936
 20
55.00401233758545
 30
0.0
 10
9.12918205250418
 20
54.84232551898416
 30
0.0
 10
9.282180557906935
 20
54.8422305287164
 30
0.0
 10
9.347337475661478
 20
54.87456546482194
 30
0.0
  0
LWPOLYLINE
  5
B2
330
1F
100
AcDbEntity
  8
0
  6
Continuous
 62
     7
370
    15
100
AcDbPolyline
 90
       24
 70
   128
 43
0.0
 10
6.1764407249
 20
55.4918229744
 10
5.9460881582
 20
55.4637062613
 10
5.8061511922
 20
55.4047815413
 10
5.6842439719
 20
55.3181523482
 10
5.5986508476
 20
55.2056042587
 10
5.5751859309
 20
55.1401686205
 10
5.5671712131
 20
55.0692069735
 10
5.5928836266
 20
54.9196547718
 10
5.6618403697
 20
54.7776172124
 10
5.7591446177
 20
54.6643199125
 10
5.8712057047
 20
54.5978925576
 10
6.4618873136
 20
54.5222015889
 10
6.621463257
 20
54.4737324683
 10
6.7364217671
 20
54.4102226439
 10
6.7668724353
 20
54.374111364
 10
6.7735386391
 20
54.3551913141
 10
6.7739158931
 20
54.3357917813
 10
6.7682239204
 20
54.3160563511
 10
6.7569199653
 20
54.2961542792
 10
6.7193068113
 20
54.2565274199
 10
6.5968744491
 20
54.1827233067
 10
6.4359100559
 20
54.1252147959
 10
6.1121538828
 20
54.1005994469
 10
6.1121538828
 20
54.1005994469
  0
SPLINE
  5
B3
330
1F
100
AcDbEntity
  8
0
  6
Continuous
 62
     7
370
    15
100
AcDbSpline
210
0.0
220
0.0
230
1.0
 70
     8
 71
     3
 72
     8
 73
     4
 74
     0
 42
0.000000001
 43
0.00000001
 40
0.0
 40
0.0
 40
0.0
 40
0.0
 40
1.0
 40
1.0
 40
1.0
 40
1.0
 10
5.646612284045189
 20
54.37707618804444
 30
0.0
 10
5.581973895572144
 20
54.30496569786791
 30
0.0
 10
5.51718732931422
 20
54.23285514832455
 30
0.0
 10
5.452258046632291
 20
54.1607446293122
 30
0.0
  0
SPLINE
  5
B4
330
1F
100
AcDbEntity
  8
0
  6
Continuous
 62
     7
370
    15
100
AcDbSpline
210
0.0
220
0.0
230
1.0
 70
     8
 71
     3
 72
    17
 73
    13
 74
     0
 42
0.000000001
 43
0.00000001
 40
0.0
 40
0.0
 40
0.0
 40
0.0
 40
0.0999922893188319
 40
0.2001155946058757
 40
0.3002954909955177
 40
0.4004811467138909
 40
0.5006637474322713
 40
0.6008941220875782
 40
0.7011895861462539
 40
0.8013007851406352
 40
0.9008073590156336
 40
0.9999999999999999
 40
0.9999999999999999
 40
0.9999999999999999
 40
0.9999999999999999
 10
5.452258046565184
 20
54.1607446293122
 30
0.0
 10
5.480489599782644
 20
54.1355035293406
 30
0.0
 10
5.536989696912586
 20
54.08498825697572
 30
0.0
 10
5.628756383974923
 20
54.01901318802116
 30
0.0
 10
5.724879598904304
 20
53.96083255361894
 30
0.0
 10
5.825218985321563
 20
53.91170121681643
 30
0.0
 10
5.928932277120007
 20
53.87198696212536
 30
0.0
 10
6.035346335813225
 20
53.84244821129558
 30
0.0
 10
6.143470226356347
 20
53.82321866906948
 30
0.0
 10
6.25206064287473
 20
53.81380494813715
 30
0.0
 10
6.360421586788383
 20
53.8119873027314
 30
0.0
 10
6.431811124546218
 20
53.81938212483739
 30
0.0
 10
6.467449497822455
 20
53.82307369420181
 30
0.0
  0
SPLINE
  5
B5
330
1F
100
AcDbEntity
  8
0
  6
Continuous
 62
     7
370
    15
100
AcDbSpline
210
0.0
220
0.0
230
1.0
 70
     8
 71
     3
 72
     9
 73
     5
 74
     0
 42
0.000000001
 43
0.00000001
 40
0.0
 40
0.0
 40
0.0
 40
0.0
 40
0.5241470462191798
 40
1.0
 40
1.0
 40
1.0
 40
1.0
 10
6.217091674659886
 20
55.22160511227592
 30
0.0
 10
6.321933283719326
 20
55.20388329054582
 30
0.0
 10
6.521956559278523
 20
55.17007250813655
 30
0.0
 10
6.694726985841126
 20
55.06002905452378
 30
0.0
 10
6.776940303646914
 20
55.00766455207784
 30
0.0
  0
SPLINE
  5
B6
330
1F
100
AcDbEntity
  8
0
  6
Continuous
 62
     7
370
    15
100
AcDbSpline
210
0.0
220
0.0
230
1.0
 70
     8
 71
     3
 72
     8
 73
     4
 74
     0
 42
0.000000001
 43
0.00000001
 40
0.7169402940218764
 40
0.7169402940218764
 40
0.7169402940218764
 40
0.7169402940218764
 40
0.7297036043200192
 40
0.7297036043200192
 40
0.7297036043200192
 40
0.7297036043200192
 10
5.07350495246494
 20
53.84529677310035
 30
0.0
 10
4.987574402034435
 20
53.84529703664364
 30
0.0
 10
4.901417371751996
 20
53.84529726957088
 30
0.0
 10
4.815045642365853
 20
53.84529747411082
 30
0.0
  0
SPLINE
  5
BB
330
1F
100
AcDbEntity
  8
0
  6
Continuous
 62
     7
370
    15
100
AcDbSpline
210
0.0
220
0.0
230
1.0
 70
     8
 71
     3
 72
     8
 73
     4
 74
     0
 42
0.000000001
 43
0.00000001
 40
0.4525754306590539
 40
0.4525754306590539
 40
0.4525754306590539
 40
0.4525754306590539
 40
0.5041507922347574
 40
0.5041507922347574
 40
0.5041507922347574
 40
0.5041507922347574
 10
-0.718836487153342
 20
54.12933229422623
 30
0.0
 10
-0.3554916484610153
 20
54.12933222557947
 30
0.0
 10
0.0086287750729128
 20
54.12933247965268
 30
0.0
 10
0.3726734572073697
 20
54.12933290129696
 30
0.0
  0
SPLINE
  5
BE
330
1F
100
AcDbEntity
  8
0
  6
Continuous
 62
     7
370
    15
100
AcDbSpline
210
0.0
220
0.0
230
1.0
 70
     8
 71
     3
 72
     8
 73
     4
 74
     0
 42
0.000000001
 43
0.00000001
 40
0.4525754306602313
 40
0.4525754306602313
 40
0.4525754306602313
 40
0.4525754306602313
 40
0.4817781870017119
 40
0.4817781870017119
 40
0.4817781870017119
 40
0.4817781870017119
 10
-0.718835382926864
 20
54.82773351759551
 30
0.0
 10
-0.5131040231491695
 20
54.82773347874592
 30
0.0
 10
-0.3071240427815906
 20
54.82773354335435
 30
0.0
 10
-0.101049981691262
 20
54.82773368325689
 30
0.0
  0
SPLINE
  5
C0
330
1F
100
AcDbEntity
  8
0
  6
Continuous
 62
     7
370
    15
100
AcDbSpline
210
0.0
220
0.0
230
1.0
 70
     8
 71
     3
 72
     8
 73
     4
 74
     0
 42
0.000000001
 43
0.00000001
 40
0.4389727495692697
 40
0.4389727495692697
 40
0.4389727495692697
 40
0.4389727495692697
 40
0.5022388492329182
 40
0.5022388492329182
 40
0.5022388492329182
 40
0.5022388492329182
 10
-1.006146707865233
 20
55.45756057005669
 30
0.0
 10
-0.5610159198441865
 20
55.45756026389515
 30
0.0
 10
-0.1143805126289542
 20
55.45756050485928
 30
0.0
 10
0.332188130873831
 20
55.45756100657451
 30
0.0
  0
SPLINE
  5
C2
330
1F
100
AcDbEntity
  8
0
  6
Continuous
 62
     7
370
    15
100
AcDbSpline
210
0.0
220
0.0
230
1.0
 70
     8
 71
     3
 72
     8
 73
     4
 74
     0
 42
0.000000001
 43
0.00000001
 40
0.3701678866041269
 40
0.3701678866041269
 40
0.3701678866041269
 40
0.3701678866041269
 40
0.4206052527924774
 40
0.4206052527924774
 40
0.4206052527924774
 40
0.4206052527924774
 10
-2.451089854546648
 20
54.11902329306106
 30
0.0
 10
-2.100311375874942
 20
54.11902183004003
 30
0.0
 10
-1.747490268358293
 20
54.11902091273391
 30
0.0
 10
-1.393422739706136
 20
54.11902039603878
 30
0.0
  0
SPLINE
  5
C4
330
1F
100
AcDbEntity
  8
0
  6
Continuous
 62
     7
370
    15
100
AcDbSpline
210
0.0
220
0.0
230
1.0
 70
     8
 71
     3
 72
     8
 73
     4
 74
     0
 42
0.000000001
 43
0.00000001
 40
0.3561846866885109
 40
0.3561846866885109
 40
0.3561846866885109
 40
0.3561846866885109
 40
0.3701678866086886
 40
0.3701678866086886
 40
0.3701678866086886
 40
0.3701678866086886
 10
-2.742349520873859
 20
55.45756539055613
 30
0.0
 10
-2.645430880869831
 20
55.45756489802189
 30
0.0
 10
-2.548338289184414
 20
55.45756445052152
 30
0.0
 10
-2.451088712172295
 20
55.45756404496305
 30
0.0
  0
SPLINE
  5
C5
330
1F
100
AcDbEntity
  8
0
  6
Continuous
 62
     7
370
    15
100
AcDbSpline
210
0.0
220
0.0
230
1.0
 70
     8
 71
     3
 72
    28
 73
    24
 74
     0
 42
0.000000001
 43
0.00000001
 40
0.0
 40
0.0
 40
0.0
 40
0.0
 40
0.0210176989499572
 40
0.0418525505350812
 40
0.062592654463272
 40
0.0833273242472943
 40
0.1041459488379582
 40
0.1251368495537328
 40
0.1876329454339669
 40
0.2501003594442546
 40
0.3125899749176859
 40
0.3750665958427197
 40
0.4375567630225186
 40
0.5000332439145483
 40
0.5624667809895514
 40
0.6249995953441657
 40
0.6874312301420495
 40
0.7499660336190053
 40
0.812389207976884
 40
0.874929545642216
 40
0.9166977083268659
 40
0.9581496255683182
 40
1.0
 40
1.0
 40
1.0
 40
1.0
 10
7.996598119763495
 20
52.24751598006571
 30
0.0
 10
8.042916218266196
 20
52.24848259658099
 30
0.0
 10
8.135149462394812
 20
52.25040742035236
 30
0.0
 10
8.271564644144409
 20
52.26611716559959
 30
0.0
 10
8.405515505778778
 20
52.29125394844169
 30
0.0
 10
8.536939959167393
 20
52.32670880164036
 30
0.0
 10
8.665878775218667
 20
52.37225790364452
 30
0.0
 10
8.874976480006792
 20
52.46428427727401
 30
0.0
 10
9.150043467199092
 20
52.63661099486671
 30
0.0
 10
9.453564832694942
 20
52.93722694142689
 30
0.0
 10
9.700858118350661
 20
53.30214305145098
 30
0.0
 10
9.88103823340154
 20
53.7208595099039
 30
0.0
 10
9.992798527633523
 20
54.17464466084942
 30
0.0
 10
10.02898717433472
 20
54.64735118656328
 30
0.0
 10
9.992763745472026
 20
55.12016208631331
 30
0.0
 10
9.881025882523671
 20
55.57386561981514
 30
0.0
 10
9.700799279422295
 20
55.99270127648592
 30
0.0
 10
9.453571368026278
 20
56.35758657583511
 30
0.0
 10
9.149939164495205
 20
56.65826913708128
 30
0.0
 10
8.835874927711483
 20
56.8553275472069
 30
0.0
 10
8.538923625330545
 20
56.9727184832719
 30
0.0
 10
8.271983189784283
 20
57.03604465422818
 30
0.0
 10
8.088593291609138
 20
57.04368001804716
 30
0.0
 10
7.99645974100127
 20
57.04751596095248
 30
0.0
  0
SPLINE
  5
C6
330
1F
100
AcDbEntity
  8
0
  6
Continuous
 62
     7
370
    15
100
AcDbSpline
210
0.0
220
0.0
230
1.0
 70
     8
 71
     3
 72
    20
 73
    16
 74
     0
 42
0.000000001
 43
0.00000001
 40
0.0
 40
0.0
 40
0.0
 40
0.0
 40
0.0420101062046087
 40
0.08365331855542
 40
0.1251118370805007
 40
0.1665702918629117
 40
0.2082133068489203
 40
0.2502230646349397
 40
0.3750532370934639
 40
0.5000795691606672
 40
0.6249303719622921
 40
0.7499312064205801
 40
0.8335159653329967
 40
0.9163968211842306
 40
1.0
 40
1.0
 40
1.0
 40
1.0
 10
-9.446741745899306
 20
54.64771028623272
 30
0.0
 10
-9.445959268829364
 20
54.59480070798362
 30
0.0
 10
-9.444401148426737
 20
54.48944363551289
 30
0.0
 10
-9.431715032541106
 20
54.33253937142835
 30
0.0
 10
-9.411400267925096
 20
54.17769325188371
 30
0.0
 10
-9.382707802794261
 20
54.0249182280077
 30
0.0
 10
-9.345776263223016
 20
53.87420741890215
 30
0.0
 10
-9.271077819019572
 20
53.6287671148018
 30
0.0
 10
-9.130674248236884
 20
53.30238866522852
 30
0.0
 10
-8.883560248705466
 20
52.93756927908766
 30
0.0
 10
-8.580088780597281
 20
52.63678828526586
 30
0.0
 10
-8.266048029501015
 20
52.4397770184446
 30
0.0
 10
-7.969164459333258
 20
52.32246761493475
 30
0.0
 10
-7.702340483255615
 20
52.25909535241002
 30
0.0
 10
-7.519099896126495
 20
52.25145703142975
 30
0.0
 10
-7.427082090318844
 20
52.24762130077809
 30
0.0
  0
SPLINE
  5
C7
330
1F
100
AcDbEntity
  8
0
  6
Continuous
 62
     7
370
    15
100
AcDbSpline
210
0.0
220
0.0
230
1.0
 70
     8
 71
     3
 72
    20
 73
    16
 74
     0
 42
0.000000001
 43
0.00000001
 40
0.0
 40
0.0
 40
0.0
 40
0.0
 40
0.0419883893353854
 40
0.0836253511865458
 40
0.1250870717827183
 40
0.1665519818937931
 40
0.2081984814880893
 40
0.2502026664152243
 40
0.375152922176393
 40
0.5000547460597922
 40
0.6250304517567165
 40
0.7499116920974583
 40
0.8334976579651759
 40
0.9163685085695267
 40
0.9999999999999999
 40
0.9999999999999999
 40
0.9999999999999999
 40
0.9999999999999999
 10
-7.42715213808226
 20
57.04762127991791
 30
0.0
 10
-7.47341419552935
 20
57.04665773995088
 30
0.0
 10
-7.565551113897988
 20
57.04473872449456
 30
0.0
 10
-7.701845004072302
 20
57.02903118590952
 30
0.0
 10
-7.835720615027426
 20
57.00389276695206
 30
0.0
 10
-7.967115580375317
 20
56.96843201643054
 30
0.0
 10
-8.096069202451137
 20
56.92287047662792
 30
0.0
 10
-8.305149435887998
 20
56.83088355893051
 30
0.0
 10
-8.580166177495705
 20
56.6586126191081
 30
0.0
 10
-8.883567737452445
 20
56.35787928124869
 30
0.0
 10
-9.130684370711771
 20
55.99301354332808
 30
0.0
 10
-9.291216807235635
 20
55.6203283787452
 30
0.0
 10
-9.386323084526852
 20
55.2726472384486
 30
0.0
 10
-9.437497839519493
 20
54.96292287993965
 30
0.0
 10
-9.44365107373202
 20
54.75310066451211
 30
0.0
 10
-9.446741745899304
 20
54.64771028623272
 30
0.0
  0
SPLINE
  5
C8
330
1F
100
AcDbEntity
  8
0
  6
Continuous
 62
     7
370
    15
100
AcDbSpline
210
0.0
220
0.0
230
1.0
 70
     8
 71
     3
 72
     8
 73
     4
 74
     0
 42
0.000000001
 43
0.00000001
 40
0.0
 40
0.0
 40
0.0
 40
0.0
 40
1.0
 40
1.0
 40
1.0
 40
1.0
 10
-7.998181569851011
 20
54.28775405054964
 30
0.0
 10
-8.06363391616937
 20
54.14515573943113
 30
0.0
 10
-8.12880198639336
 20
54.00255748716732
 30
0.0
 10
-8.19367866657875
 20
53.85995929500442
 30
0.0
  0
SPLINE
  5
C9
330
1F
100
AcDbEntity
  8
0
  6
Continuous
 62
     7
370
    15
100
AcDbSpline
210
0.0
220
0.0
230
1.0
 70
     8
 71
     3
 72
     8
 73
     4
 74
     0
 42
0.000000001
 43
0.00000001
 40
0.0
 40
0.0
 40
0.0
 40
0.0
 40
1.0
 40
1.0
 40
1.0
 40
1.0
 10
-7.558465166756612
 20
55.45764729645208
 30
0.0
 10
-7.325178042267412
 20
54.92506881443204
 30
0.0
 10
-7.088608812196934
 20
54.39249101803978
 30
0.0
 10
-6.849061429691877
 20
53.85991385402134
 30
0.0
  0
SPLINE
  5
CA
330
1F
100
AcDbEntity
  8
0
  6
Continuous
 62
     7
370
    15
100
AcDbSpline
210
0.0
220
0.0
230
1.0
 70
     8
 71
     3
 72
     8
 73
     4
 74
     0
 42
0.000000001
 43
0.00000001
 40
0.1009071999826865
 40
0.1009071999826865
 40
0.1009071999826865
 40
0.1009071999826865
 40
0.1128560361267588
 40
0.1128560361267588
 40
0.1128560361267588
 40
0.1128560361267588
 10
-7.778007805939435
 20
55.45765499601541
 30
0.0
 10
-7.705159387852142
 20
55.45765236047495
 30
0.0
 10
-7.631975334264498
 20
55.45764979472978
 30
0.0
 10
-7.558465166756628
 20
55.45764729711178
 30
0.0
  0
SPLINE
  5
CD
330
1F
100
AcDbEntity
  8
0
  6
Continuous
 62
     7
370
    15
100
AcDbSpline
210
0.0
220
0.0
230
1.0
 70
     8
 71
     3
 72
     8
 73
     4
 74
     0
 42
0.000000001
 43
0.00000001
 40
0.2227459756816688
 40
0.2227459756816688
 40
0.2227459756816688
 40
0.2227459756816688
 40
0.2356840922311198
 40
0.2356840922311198
 40
0.2356840922311198
 40
0.2356840922311198
 10
-5.454969661396806
 20
55.45759438652554
 30
0.0
 10
-5.369750399880963
 20
55.45759288619545
 30
0.0
 10
-5.284251456442697
 20
55.45759144775442
 30
0.0
 10
-5.198484918829719
 20
55.45759006908457
 30
0.0
  0
SPLINE
  5
CE
330
1F
100
AcDbEntity
  8
0
  6
Continuous
 62
     7
370
    15
100
AcDbSpline
210
0.0
220
0.0
230
1.0
 70
     8
 71
     3
 72
     8
 73
     4
 74
     0
 42
0.000000001
 43
0.00000001
 40
0.0
 40
0.0
 40
0.0
 40
0.0
 40
1.0
 40
1.0
 40
1.0
 40
1.0
 10
-6.290691913181896
 20
55.45761136136807
 30
0.0
 10
-6.015463489017607
 20
55.08476759094183
 30
0.0
 10
-5.736741661100231
 20
54.71192457339414
 30
0.0
 10
-5.454963083381144
 20
54.33908223223194
 30
0.0
  0
SPLINE
  5
CF
330
1F
100
AcDbEntity
  8
0
  6
Continuous
 62
     7
370
    15
100
AcDbSpline
210
0.0
220
0.0
230
1.0
 70
     8
 71
     3
 72
     8
 73
     4
 74
     0
 42
0.000000001
 43
0.00000001
 40
0.1663392035422946
 40
0.1663392035422946
 40
0.1663392035422946
 40
0.1663392035422946
 40
0.1799660935471793
 40
0.1799660935471793
 40
0.1799660935471793
 40
0.1799660935471793
 10
-6.55262043569001
 20
55.4576176994992
 30
0.0
 10
-6.46567493316941
 20
55.45761550853712
 30
0.0
 10
-6.378360718048814
 20
55.45761339647037
 30
0.0
 10
-6.290691913181941
 20
55.45761136082472
 30
0.0
  0
SPLINE
  5
D0
330
1F
100
AcDbEntity
  8
0
  6
Continuous
 62
     7
370
    15
100
AcDbSpline
210
0.0
220
0.0
230
1.0
 70
     8
 71
     3
 72
     8
 73
     4
 74
     0
 42
0.000000001
 43
0.00000001
 40
0.0
 40
0.0
 40
0.0
 40
0.0
 40
1.0
 40
1.0
 40
1.0
 40
1.0
 10
-3.456818384501614
 20
55.00768092154262
 30
0.0
 10
-3.391336028382684
 20
55.08250717712204
 30
0.0
 10
-3.325753897219317
 20
55.15733350475139
 30
0.0
 10
-3.260077312327424
 20
55.23215981984253
 30
0.0
  0
SPLINE
  5
D1
330
1F
100
AcDbEntity
  8
0
  6
Continuous
 62
     7
370
    15
100
AcDbSpline
210
0.0
220
0.0
230
1.0
 70
     8
 71
     3
 72
     8
 73
     4
 74
     0
 42
0.000000001
 43
0.00000001
 40
0.0
 40
0.0
 40
0.0
 40
0.0
 40
0.1874999999999969
 40
0.1874999999999969
 40
0.1874999999999969
 40
0.1874999999999969
 10
-3.260077312282695
 20
55.23215981984253
 30
0.0
 10
-3.477823997245741
 20
55.39608218485314
 30
0.0
 10
-3.751212249609693
 20
55.49311128127987
 30
0.0
 10
-4.019605529499934
 20
55.48669498948355
 30
0.0
  0
SPLINE
  5
D2
330
1F
100
AcDbEntity
  8
0
  6
Continuous
 62
     7
370
    15
100
AcDbSpline
210
0.0
220
0.0
230
1.0
 70
     8
 71
     3
 72
    13
 73
     9
 74
     0
 42
0.000000001
 43
0.00000001
 40
0.0
 40
0.0
 40
0.0
 40
0.0
 40
0.0742782006429895
 40
0.3678094459664527
 40
0.6996518719602497
 40
0.8558435869250964
 40
0.9279419043183343
 40
0.9999999999999999
 40
0.9999999999999999
 40
0.9999999999999999
 40
0.9999999999999999
 10
-3.973903423955361
 20
53.82055279204079
 30
0.0
 10
-3.951826990003484
 20
53.81835297871018
 30
0.0
 10
-3.84250930499678
 20
53.80745998298142
 30
0.0
 10
-3.636299317231313
 20
53.86940817043517
 30
0.0
 10
-3.41355085484414
 20
53.94770969591245
 30
0.0
 10
-3.274536658359823
 20
54.05148261176085
 30
0.0
 10
-3.221646595645212
 20
54.12935867924374
 30
0.0
 10
-3.212483005508905
 20
54.17340017684747
 30
0.0
 10
-3.207902488827441
 20
54.19541478154388
 30
0.0
  0
SPLINE
  5
D5
330
1F
100
AcDbEntity
  8
0
  6
Continuous
 62
     7
370
    15
100
AcDbSpline
210
0.0
220
0.0
230
1.0
 70
     8
 71
     3
 72
    11
 73
     7
 74
     0
 42
0.000000001
 43
0.00000001
 40
0.1874999999978046
 40
0.1874999999978046
 40
0.1874999999978046
 40
0.1874999999978046
 40
0.2278760094989681
 40
0.463932606092325
 40
0.7236481663609595
 40
0.8125000000002317
 40
0.8125000000002317
 40
0.8125000000002317
 40
0.8125000000002317
 10
-3.900272456757111
 20
54.09781198598462
 30
0.0
 10
-3.945676552147092
 20
54.09279065104289
 30
0.0
 10
-4.259774803376972
 20
54.08703592799225
 30
0.0
 10
-4.752409578871386
 20
54.47618096478257
 30
0.0
 10
-4.397288290584644
 20
55.17615585936297
 30
0.0
 10
-4.062239450627231
 20
55.22364047308226
 30
0.0
 10
-3.975017906371491
 20
55.21811171633506
 30
0.0
  0
SPLINE
  5
D6
330
1F
100
AcDbEntity
  8
0
  6
Continuous
 62
     7
370
    15
100
AcDbSpline
210
0.0
220
0.0
230
1.0
 70
     8
 71
     3
 72
    14
 73
    10
 74
     0
 42
0.000000001
 43
0.00000001
 40
0.0
 40
0.0
 40
0.0
 40
0.0
 40
0.0016355206948481
 40
0.2513889897098375
 40
0.4989474292332818
 40
0.6237400511772873
 40
0.749028142297711
 40
0.8748278687133746
 40
1.0
 40
1.0
 40
1.0
 40
1.0
 10
3.532635976443147
 20
55.48680980319431
 30
0.0
 10
3.531905754252842
 20
55.48693068014665
 30
0.0
 10
3.419666380417589
 20
55.50551016680038
 30
0.0
 10
3.189214978276166
 20
55.44036872658686
 30
0.0
 10
2.935606581981185
 20
55.30938793106288
 30
0.0
 10
2.774408484408188
 20
55.14358093694738
 30
0.0
 10
2.680719648481788
 20
54.99685169280666
 30
0.0
 10
2.618963273118052
 20
54.83182345058679
 30
0.0
 10
2.610747500871977
 20
54.71552883098462
 30
0.0
 10
2.606649887172888
 20
54.65752692779902
 30
0.0
  0
SPLINE
  5
D7
330
1F
100
AcDbEntity
  8
0
  6
Continuous
 62
     7
370
    15
100
AcDbSpline
210
0.0
220
0.0
230
1.0
 70
     8
 71
     3
 72
    10
 73
     6
 74
     0
 42
0.000000001
 43
0.00000001
 40
0.0
 40
0.0
 40
0.0
 40
0.0
 40
0.1192001172176838
 40
0.2418374366753933
 40
0.4999999999999946
 40
0.4999999999999946
 40
0.4999999999999946
 40
0.4999999999999946
 10
2.606649887172888
 20
54.65752692779902
 30
0.0
 10
2.606652148394113
 20
54.54753457275396
 30
0.0
 10
2.658580963565522
 20
54.32126193749509
 30
0.0
 10
2.947451043548501
 20
53.94805356001731
 30
0.0
 10
3.295026128210574
 20
53.8288738729994
 30
0.0
 10
3.530456617364807
 20
53.82788514115789
 30
0.0
  0
SPLINE
  5
D8
330
1F
100
AcDbEntity
  8
0
  6
Continuous
 62
     7
370
    15
100
AcDbSpline
210
0.0
220
0.0
230
1.0
 70
     8
 71
     3
 72
     8
 73
     4
 74
     0
 42
0.000000001
 43
0.00000001
 40
0.8477867179209858
 40
0.8477867179209858
 40
0.8477867179209858
 40
0.8477867179209858
 40
0.9138004836347081
 40
0.9138004836347081
 40
0.9138004836347081
 40
0.9138004836347081
 10
8.615159772690285
 20
53.8452596257728
 30
0.0
 10
8.217182820593727
 20
53.84526795512723
 30
0.0
 10
7.808601598874872
 20
53.84527460551691
 30
0.0
 10
7.39104610306484
 20
53.8452798853053
 30
0.0
  0
SPLINE
  5
D9
330
1F
100
AcDbEntity
  8
0
  6
Continuous
 62
     7
370
    15
100
AcDbSpline
210
0.0
220
0.0
230
1.0
 70
     8
 71
     3
 72
     8
 73
     4
 74
     0
 42
0.000000001
 43
0.00000001
 40
0.8615905659590004
 40
0.8615905659590004
 40
0.8615905659590004
 40
0.8615905659590004
 40
0.8907070890680191
 40
0.8907070890680191
 40
0.8907070890680191
 40
0.8907070890680191
 10
8.19364615263609
 20
54.53860961741997
 30
0.0
 10
8.014927960368295
 20
54.53861278990058
 30
0.0
 10
7.834257712292785
 20
54.53861565673546
 30
0.0
 10
7.651775270365298
 20
54.53861824438388
 30
0.0
  0
SPLINE
  5
DA
330
1F
100
AcDbEntity
  8
0
  6
Continuous
 62
     7
370
    15
100
AcDbSpline
210
0.0
220
0.0
230
1.0
 70
     8
 71
     3
 72
     8
 73
     4
 74
     0
 42
0.000000001
 43
0.00000001
 40
0.8615905659637643
 40
0.8615905659637643
 40
0.8615905659637643
 40
0.8615905659637643
 40
0.9116488858089641
 40
0.9116488858089641
 40
0.9116488858089641
 40
0.9116488858089641
 10
8.57616786556252
 20
55.17564246225781
 30
0.0
 10
8.273861755441548
 20
55.17564869618552
 30
0.0
 10
7.965488373261365
 20
55.17565397042556
 30
0.0
 10
7.651758454801306
 20
55.17565841943517
 30
0.0
  0
SPLINE
  5
DD
330
1F
100
AcDbEntity
  8
0
  6
Continuous
 62
     7
370
    15
100
AcDbSpline
210
0.0
220
0.0
230
1.0
 70
     8
 71
     3
 72
     8
 73
     4
 74
     0
 42
0.000000001
 43
0.00000001
 40
0.0
 40
0.0
 40
0.0
 40
0.0
 40
1.0
 40
1.0
 40
1.0
 40
1.0
 10
-1.010818405069751
 20
55.45755977761269
 30
0.0
 10
-0.5640934165494942
 20
55.45755971922483
 30
0.0
 10
-0.1158467082212438
 20
55.45756021575554
 30
0.0
 10
0.3323477355627805
 20
55.45756098062338
 30
0.0
  0
SPLINE
  5
E0
330
1F
100
AcDbEntity
  8
0
  6
Continuous
 62
     7
370
    15
100
AcDbSpline
210
0.0
220
0.0
230
1.0
 70
     8
 71
     3
 72
     8
 73
     4
 74
     0
 42
0.000000001
 43
0.00000001
 40
0.0
 40
0.0
 40
0.0
 40
0.0
 40
1.0
 40
1.0
 40
1.0
 40
1.0
 10
-0.7224840446820573
 20
54.12933167651512
 30
0.0
 10
-0.3578321383750663
 20
54.12933181253865
 30
0.0
 10
0.0076065618334398
 20
54.12933227654548
 30
0.0
 10
0.3729789599891469
 20
54.12933291307942
 30
0.0
  0
SPLINE
  5
E3
330
1F
100
AcDbEntity
  8
0
  6
Continuous
 62
     7
370
    15
100
AcDbSpline
210
0.0
220
0.0
230
1.0
 70
     8
 71
     3
 72
     8
 73
     4
 74
     0
 42
0.000000001
 43
0.00000001
 40
0.0
 40
0.0
 40
0.0
 40
0.0
 40
1.0
 40
1.0
 40
1.0
 40
1.0
 10
-0.7224824756544734
 20
54.82773287989274
 30
0.0
 10
-0.5160102877664489
 20
54.82773295693111
 30
0.0
 10
-0.3092859161701884
 20
54.82773313909417
 30
0.0
 10
-0.1024641527650504
 20
54.8277333982089
 30
0.0
  0
SPLINE
  5
EC
330
1F
100
AcDbEntity
  8
0
  6
Continuous
 62
     7
370
    15
100
AcDbSpline
210
0.0
220
0.0
230
1.0
 70
     8
 71
     3
 72
     8
 73
     4
 74
     0
 42
0.000000001
 43
0.00000001
 40
0.0
 40
0.0
 40
0.0
 40
0.0
 40
1.0
 40
1.0
 40
1.0
 40
1.0
 10
-0.1024647270349781
 20
54.53863571261297
 30
0.0
 10
-0.3092865288422545
 20
54.53863545350135
 30
0.0
 10
-0.5160109255129446
 20
54.53863527134395
 30
0.0
 10
-0.7224831251289305
 20
54.53863519431368
 30
0.0
  0
SPLINE
  5
ED
330
1F
100
AcDbEntity
  8
0
  6
Continuous
 62
     7
370
    15
100
AcDbSpline
210
0.0
220
0.0
230
1.0
 70
     8
 71
     3
 72
     8
 73
     4
 74
     0
 42
0.000000001
 43
0.00000001
 40
0.0
 40
0.0
 40
0.0
 40
0.0
 40
1.0
 40
1.0
 40
1.0
 40
1.0
 10
0.3323472521545023
 20
55.16264767521584
 30
0.0
 10
-0.0194840202720247
 20
55.16264707479668
 30
0.0
 10
-0.3713475700965127
 20
55.16264663968074
 30
0.0
 10
-0.722481723273382
 20
55.16264650865077
 30
0.0
  0
SPLINE
  5
EE
330
1F
100
AcDbEntity
  8
0
  6
Continuous
 62
     7
370
    15
100
AcDbSpline
210
0.0
220
0.0
230
1.0
 70
     8
 71
     3
 72
     8
 73
     4
 74
     0
 42
0.000000001
 43
0.00000001
 40
0.0
 40
0.0
 40
0.0
 40
0.0
 40
1.0
 40
1.0
 40
1.0
 40
1.0
 10
0.3729785054544756
 20
53.84529456963372
 30
0.0
 10
-0.0887564249056615
 20
53.84529376522052
 30
0.0
 10
-0.5505969850940887
 20
53.84529323645426
 30
0.0
 10
-1.010822070078938
 20
53.84529329673515
 30
0.0
  0
SPLINE
  5
F2
330
1F
100
AcDbEntity
  8
0
  6
Continuous
 62
     7
370
    15
100
AcDbSpline
210
0.0
220
0.0
230
1.0
 70
     8
 71
     3
 72
     8
 73
     4
 74
     0
 42
0.000000001
 43
0.00000001
 40
0.0
 40
0.0
 40
0.0
 40
0.0
 40
1.0
 40
1.0
 40
1.0
 40
1.0
 10
0.8454081444771504
 20
53.84529547650374
 30
0.0
 10
0.9424102094357303
 20
53.84529567738705
 30
0.0
 10
1.039381629769584
 20
53.84529588569009
 30
0.0
 10
1.136306420383882
 20
53.84529609848266
 30
0.0
  0
SPLINE
  5
F5
330
1F
100
AcDbEntity
  8
0
  6
Continuous
 62
     7
370
    15
100
AcDbSpline
210
0.0
220
0.0
230
1.0
 70
     8
 71
     3
 72
     8
 73
     4
 74
     0
 42
0.000000001
 43
0.00000001
 40
0.0
 40
0.0
 40
0.0
 40
0.0
 40
1.0
 40
1.0
 40
1.0
 40
1.0
 10
1.818864123180609
 20
54.77871156153724
 30
0.0
 10
1.591741043494854
 20
54.77871104982346
 30
0.0
 10
1.364152918359901
 20
54.77871052482375
 30
0.0
 10
1.136307018431554
 20
54.77871002462453
 30
0.0
  0
SPLINE
  5
F6
330
1F
100
AcDbEntity
  8
0
  6
Continuous
 62
     7
370
    15
100
AcDbSpline
210
0.0
220
0.0
230
1.0
 70
     8
 71
     3
 72
    17
 73
    13
 74
     0
 42
0.000000001
 43
0.00000001
 40
0.0
 40
0.0
 40
0.0
 40
0.0
 40
0.0605009623792273
 40
0.1215074668844818
 40
0.18452181676878
 40
0.2509101491912856
 40
0.380143096148402
 40
0.5002906288163869
 40
0.6276427386704558
 40
0.7508998321591837
 40
0.8505886565242828
 40
1.0
 40
1.0
 40
1.0
 40
1.0
 10
1.800624642254937
 20
55.17567962704728
 30
0.0
 10
1.815112091518847
 20
55.17567993824191
 30
0.0
 10
1.844208046235092
 20
55.17568056323141
 30
0.0
 10
1.887647862128685
 20
55.16670604618113
 30
0.0
 10
1.930535936189345
 20
55.15101460589577
 30
0.0
 10
1.985101096784774
 20
55.12221501284665
 30
0.0
 10
2.04510204229377
 20
55.07086989646115
 30
0.0
 10
2.070106847540861
 20
54.97967126343761
 30
0.0
 10
2.055164792991633
 20
54.88886236049684
 30
0.0
 10
1.998861769517985
 20
54.82009952728972
 30
0.0
 10
1.913654546448812
 20
54.78849022861021
 30
0.0
 10
1.854403094786923
 20
54.78237781390261
 30
0.0
 10
1.8188638212793
 20
54.77871156148196
 30
0.0
  0
SPLINE
  5
F7
330
1F
100
AcDbEntity
  8
0
  6
Continuous
 62
     7
370
    15
100
AcDbSpline
210
0.0
220
0.0
230
1.0
 70
     8
 71
     3
 72
     8
 73
     4
 74
     0
 42
0.000000001
 43
0.00000001
 40
0.0
 40
0.0
 40
0.0
 40
0.0
 40
1.0
 40
1.0
 40
1.0
 40
1.0
 10
1.136307272653775
 20
55.17567813135005
 30
0.0
 10
1.35805436853211
 20
55.17567861815087
 30
0.0
 10
1.579557286424283
 20
55.17567912843846
 30
0.0
 10
1.800624949574462
 20
55.17567962710357
 30
0.0
  0
SPLINE
  5
F9
330
1F
100
AcDbEntity
  8
0
  6
Continuous
 62
     7
370
    15
100
AcDbSpline
210
0.0
220
0.0
230
1.0
 70
     8
 71
     3
 72
    20
 73
    16
 74
     0
 42
0.000000001
 43
0.00000001
 40
0.0
 40
0.0
 40
0.0
 40
0.0
 40
0.0418237727897216
 40
0.0833896182849996
 40
0.1254329829742277
 40
0.1880921098434005
 40
0.2507342826531531
 40
0.3754023519771834
 40
0.500061782498045
 40
0.6247165040522774
 40
0.7493785150787236
 40
0.8119704911696352
 40
0.8746798264887778
 40
0.9374387257150595
 40
0.9999999999999999
 40
0.9999999999999999
 40
0.9999999999999999
 40
0.9999999999999999
 10
1.854491762899996
 20
54.49611138068644
 30
0.0
 10
1.875891345946498
 20
54.49626947891429
 30
0.0
 10
1.918558540766008
 20
54.49658470037788
 30
0.0
 10
1.981913050027308
 20
54.50789999627026
 30
0.0
 10
2.05338512742024
 20
54.53009981619661
 30
0.0
 10
2.130386013719836
 20
54.56869973489176
 30
0.0
 10
2.231215468757647
 20
54.64834178313327
 30
0.0
 10
2.324830491237006
 20
54.78354827924847
 30
0.0
 10
2.364110918649185
 20
54.97683764171757
 30
0.0
 10
2.324779299000171
 20
55.17012138937871
 30
0.0
 10
2.231239636226267
 20
55.30527542388963
 30
0.0
 10
2.130395818772495
 20
55.38503675909545
 30
0.0
 10
2.043920906790043
 20
55.42806169836079
 30
0.0
 10
1.950777061640973
 20
55.45502116968459
 30
0.0
 10
1.886552688987698
 20
55.45671741247426
 30
0.0
 10
1.854491142304794
 20
55.45756419641534
 30
0.0
  0
SPLINE
  5
FA
330
1F
100
AcDbEntity
  8
0
  6
Continuous
 62
     7
370
    15
100
AcDbSpline
210
0.0
220
0.0
230
1.0
 70
     8
 71
     3
 72
     8
 73
     4
 74
     0
 42
0.000000001
 43
0.00000001
 40
0.0
 40
0.0
 40
0.0
 40
0.0
 40
1.0
 40
1.0
 40
1.0
 40
1.0
 10
1.136306837408252
 20
54.49610976363029
 30
0.0
 10
1.376067837127328
 20
54.49611028999435
 30
0.0
 10
1.615543407424785
 20
54.496110843824
 30
0.0
 10
1.854492051803687
 20
54.49611138073951
 30
0.0
  0
SPLINE
  5
FB
330
1F
100
AcDbEntity
  8
0
  6
Continuous
 62
     7
370
    15
100
AcDbSpline
210
0.0
220
0.0
230
1.0
 70
     8
 71
     3
 72
     8
 73
     4
 74
     0
 42
0.000000001
 43
0.00000001
 40
0.0
 40
0.0
 40
0.0
 40
0.0
 40
1.0
 40
1.0
 40
1.0
 40
1.0
 10
1.854491431240191
 20
55.45756419646841
 30
0.0
 10
1.518947153275546
 20
55.45756344256836
 30
0.0
 10
1.182363583531658
 20
55.45756265529822
 30
0.0
 10
0.8454098462811998
 20
55.45756195753215
 30
0.0
  0
SPLINE
  5
FE
330
1F
100
AcDbEntity
  8
0
  6
Continuous
 62
     7
370
    15
100
AcDbSpline
210
0.0
220
0.0
230
1.0
 70
     8
 71
     3
 72
     8
 73
     4
 74
     0
 42
0.000000001
 43
0.00000001
 40
0.0
 40
0.0
 40
0.0
 40
0.0
 40
1.0
 40
1.0
 40
1.0
 40
1.0
 10
1.133660760166138
 20
55.17567764692122
 30
0.0
 10
1.354716464089734
 20
55.17567800689582
 30
0.0
 10
1.575528751359895
 20
55.17567839028381
 30
0.0
 10
1.79590714098428
 20
55.17567876208551
 30
0.0
  0
SPLINE
  5
100
330
1F
100
AcDbEntity
  8
0
  6
Continuous
 62
     7
370
    15
100
AcDbSpline
210
0.0
220
0.0
230
1.0
 70
     8
 71
     3
 72
     8
 73
     4
 74
     0
 42
0.000000001
 43
0.00000001
 40
0.0
 40
0.0
 40
0.0
 40
0.0
 40
1.0
 40
1.0
 40
1.0
 40
1.0
 10
-2.460668673143848
 20
54.11902158631688
 30
0.0
 10
-2.108714092900069
 20
54.11902031115456
 30
0.0
 10
-1.754713003956963
 20
54.11901958368514
 30
0.0
 10
-1.399455423716337
 20
54.11901926124141
 30
0.0
  0
SPLINE
  5
103
330
1F
100
AcDbEntity
  8
0
  6
Continuous
 62
     7
370
    15
100
AcDbSpline
210
0.0
220
0.0
230
1.0
 70
     8
 71
     3
 72
    10
 73
     6
 74
     0
 42
0.000000001
 43
0.00000001
 40
0.0
 40
0.0
 40
0.0
 40
0.0
 40
0.4950375286615339
 40
0.7474550309198443
 40
1.0
 40
1.0
 40
1.0
 40
1.0
 10
1.79590714098428
 20
55.17567876208551
 30
0.0
 10
1.910500601157832
 20
55.18964338078503
 30
0.0
 10
2.123058444420618
 20
55.05533213414093
 30
0.0
 10
2.002055797670713
 20
54.79130574409785
 30
0.0
 10
1.872837069619873
 20
54.78271514870414
 30
0.0
 10
1.814089673927308
 20
54.77871068609375
 30
0.0
  0
SPLINE
  5
108
330
1F
100
AcDbEntity
  8
0
  6
Continuous
 62
     7
370
    15
100
AcDbSpline
210
0.0
220
0.0
230
1.0
 70
     8
 71
     3
 72
     8
 73
     4
 74
     0
 42
0.000000001
 43
0.00000001
 40
0.0
 40
0.0
 40
0.0
 40
0.0
 40
1.0
 40
1.0
 40
1.0
 40
1.0
 10
-2.752856994034569
 20
55.4575634897767
 30
0.0
 10
-2.655628551506754
 20
55.45756304921723
 30
0.0
 10
-2.558226209901793
 20
55.45756265373214
 30
0.0
 10
-2.460666681470607
 20
55.4575623003144
 30
0.0
  0
SPLINE
  5
109
330
1F
100
AcDbEntity
  8
0
  6
Continuous
 62
     7
370
    15
100
AcDbSpline
210
0.0
220
0.0
230
1.0
 70
     8
 71
     3
 72
     8
 73
     4
 74
     0
 42
0.000000001
 43
0.00000001
 40
0.0
 40
0.0
 40
0.0
 40
0.0
 40
1.0
 40
1.0
 40
1.0
 40
1.0
 10
-1.399456029717275
 20
53.84529349490763
 30
0.0
 10
-1.853188529224746
 20
53.84529390675852
 30
0.0
 10
-2.304870661494944
 20
53.8452949795003
 30
0.0
 10
-2.752858833587994
 20
53.84529700971508
 30
0.0
  0
SPLINE
  5
10A
330
1F
100
AcDbEntity
  8
0
  6
Continuous
 62
     7
370
    15
100
AcDbSpline
210
0.0
220
0.0
230
1.0
 70
     8
 71
     3
 72
     9
 73
     5
 74
     0
 42
0.000000001
 43
0.00000001
 40
0.0
 40
0.0
 40
0.0
 40
0.0
 40
0.569934672411426
 40
1.0
 40
1.0
 40
1.0
 40
1.0
 10
8.687444503895438
 20
52.43027975273174
 30
0.0
 10
8.582890897841988
 20
52.38204263932478
 30
0.0
 10
8.399442493815119
 20
52.2974064244357
 30
0.0
 10
8.198077553722584
 20
52.2807357389129
 30
0.0
 10
8.111477474796832
 20
52.27356625508228
 30
0.0
  0
SPLINE
  5
10B
330
1F
100
AcDbEntity
  8
0
  6
Continuous
 62
     7
370
    15
100
AcDbSpline
210
0.0
220
0.0
230
1.0
 70
     8
 71
     3
 72
     8
 73
     4
 74
     0
 42
0.000000001
 43
0.00000001
 40
0.868692447766555
 40
0.868692447766555
 40
0.868692447766555
 40
0.868692447766555
 40
0.8746462796402832
 40
0.8746462796402832
 40
0.8746462796402832
 40
0.8746462796402832
 10
8.68744529899146
 20
52.4302801446811
 30
0.0
 10
8.699034950815438
 20
52.43599336616989
 30
0.0
 10
8.71056921308098
 20
52.44183541650871
 30
0.0
 10
8.72204598438563
 20
52.44780547504268
 30
0.0
  0
SPLINE
  5
10C
330
1F
100
AcDbEntity
  8
0
  6
Continuous
 62
     7
370
    15
100
AcDbSpline
210
0.0
220
0.0
230
1.0
 70
     8
 71
     3
 72
     9
 73
     5
 74
     0
 42
0.000000001
 43
0.00000001
 40
0.0
 40
0.0
 40
0.0
 40
0.0
 40
0.2546351074289239
 40
1.0
 40
1.0
 40
1.0
 40
1.0
 10
-7.972295438260351
 20
56.92315835153406
 30
0.0
 10
-7.944079951056195
 20
56.93685242091217
 30
0.0
 10
-7.833272421454126
 20
56.99063160916484
 30
0.0
 10
-7.709040471178367
 20
56.9985883858618
 30
0.0
 10
-7.616442336907182
 20
57.00451908786985
 30
0.0
  0
SPLINE
  5
10D
330
1F
100
AcDbEntity
  8
0
  6
Continuous
 62
     7
370
    15
100
AcDbSpline
210
0.0
220
0.0
230
1.0
 70
     8
 71
     3
 72
     8
 73
     4
 74
     0
 42
0.000000001
 43
0.00000001
 40
0.716033329840883
 40
0.716033329840883
 40
0.716033329840883
 40
0.716033329840883
 40
0.7206178795509914
 40
0.7206178795509914
 40
0.7206178795509914
 40
0.7206178795509914
 10
-8.200037551537266
 20
56.8216636650235
 30
0.0
 10
-8.20439797452963
 20
56.81922843255038
 30
0.0
 10
-8.2087500194854
 20
56.81677422099274
 30
0.0
 10
-8.213093598574456
 20
56.81430106696717
 30
0.0
  0
SPLINE
  5
111
330
1F
100
AcDbEntity
  8
0
  6
Continuous
 62
     7
370
    15
100
AcDbSpline
210
0.0
220
0.0
230
1.0
 70
     8
 71
     3
 72
    23
 73
    19
 74
     0
 42
0.000000001
 43
0.00000001
 40
0.0
 40
0.0
 40
0.0
 40
0.0
 40
0.0316860838599703
 40
0.0624655322741576
 40
0.0927347982391419
 40
0.1229104576346473
 40
0.1534129322618249
 40
0.1846494629549241
 40
0.2169995932365891
 40
0.2508053916181519
 40
0.3735955757266441
 40
0.5001868914591767
 40
0.6267359654185779
 40
0.7495644562569694
 40
0.8156316015818997
 40
0.8772691830880188
 40
0.93761451285416
 40
1.0
 40
1.0
 40
1.0
 40
1.0
 10
2.613903141393802
 20
54.6575282604439
 30
0.0
 10
2.614761135677732
 20
54.62807616118481
 30
0.0
 10
2.616452574413761
 20
54.57001467700329
 30
0.0
 10
2.630721901624836
 20
54.48480815449186
 30
0.0
 10
2.653707332742701
 20
54.40314157951909
 30
0.0
 10
2.686171218634136
 20
54.32506033468776
 30
0.0
 10
2.72788338029906
 20
54.25060901896994
 30
0.0
 10
2.778832202948032
 20
54.1798111368258
 30
0.0
 10
2.839010734477112
 20
54.11268502818412
 30
0.0
 10
2.967376920834149
 20
53.99470951055174
 30
0.0
 10
3.197740262838205
 20
53.86001027802023
 30
0.0
 10
3.54295363844498
 20
53.80864881355407
 30
0.0
 10
3.88679060800737
 20
53.86000909940059
 30
0.0
 10
4.139351161644598
 20
54.00995060739233
 30
0.0
 10
4.30080244535559
 20
54.17424993506814
 30
0.0
 10
4.393507846273159
 20
54.32187147960743
 30
0.0
 10
4.450627037474789
 20
54.48510199044043
 30
0.0
 10
4.457064686921237
 20
54.59942035260212
 30
0.0
 10
4.460337018246784
 20
54.6575296921521
 30
0.0
  0
SPLINE
  5
112
330
1F
100
AcDbEntity
  8
0
  6
Continuous
 62
     7
370
    15
100
AcDbSpline
210
0.0
220
0.0
230
1.0
 70
     8
 71
     3
 72
    23
 73
    19
 74
     0
 42
0.000000001
 43
0.00000001
 40
0.0
 40
0.0
 40
0.0
 40
0.0
 40
0.0316861024152568
 40
0.0624655670804356
 40
0.0927348456294092
 40
0.1229105123256323
 40
0.1534129872608997
 40
0.1846495096348834
 40
0.2169996215428218
 40
0.2508053903489867
 40
0.3735955888142364
 40
0.5001868908898439
 40
0.6267359234243748
 40
0.7495644574681194
 40
0.8156316041570282
 40
0.8772691923815835
 40
0.937614523553518
 40
1.0
 40
1.0
 40
1.0
 40
1.0
 10
4.460337018246783
 20
54.6575296921521
 30
0.0
 10
4.459499595979475
 20
54.68698179006793
 30
0.0
 10
4.457848712695452
 20
54.74504326995322
 30
0.0
 10
4.443920781407641
 20
54.83024981674988
 30
0.0
 10
4.42147450148831
 20
54.9119164368217
 30
0.0
 10
4.389749406938788
 20
54.989997748214
 30
0.0
 10
4.348946865184404
 20
55.06444914913167
 30
0.0
 10
4.299048728732816
 20
55.13524713188567
 30
0.0
 10
4.240024892548318
 20
55.20237335253575
 30
0.0
 10
4.113910337720356
 20
55.32034917071471
 30
0.0
 10
3.886665088435596
 20
55.45504888831665
 30
0.0
 10
3.54309974076915
 20
55.50641047858362
 30
0.0
 10
3.197615869341502
 20
55.45504978816407
 30
0.0
 10
2.941594171063163
 20
55.30510776149866
 30
0.0
 10
2.777087891312403
 20
55.14080808634058
 30
0.0
 10
2.682349677476907
 20
54.99318639062945
 30
0.0
 10
2.623857013360452
 20
54.82995584843708
 30
0.0
 10
2.617257665542035
 20
54.71563755797981
 30
0.0
 10
2.613903141393803
 20
54.6575282604439
 30
0.0
  0
SPLINE
  5
113
330
1F
100
AcDbEntity
  8
0
  6
Continuous
 62
     7
370
    15
100
AcDbSpline
210
0.0
220
0.0
230
1.0
 70
     8
 71
     3
 72
    11
 73
     7
 74
     0
 42
0.000000001
 43
0.00000001
 40
0.0
 40
0.0
 40
0.0
 40
0.0
 40
0.2451152526621412
 40
0.4999419363056374
 40
0.7547985183782969
 40
1.0
 40
1.0
 40
1.0
 40
1.0
 10
4.165159194691043
 20
54.63750819279889
 30
0.0
 10
4.169732301634536
 20
54.78518612881433
 30
0.0
 10
4.013856945026397
 20
55.09417963736074
 30
0.0
 10
3.56151430010083
 20
55.24322489929023
 30
0.0
 10
3.097653430154833
 20
55.12344458642859
 30
0.0
 10
2.919841629186672
 20
54.82528016026211
 30
0.0
 10
2.915184690424446
 20
54.67755043943723
 30
0.0
  0
SPLINE
  5
114
330
1F
100
AcDbEntity
  8
0
  6
Continuous
 62
     7
370
    15
100
AcDbSpline
210
0.0
220
0.0
230
1.0
 70
     8
 71
     3
 72
    11
 73
     7
 74
     0
 42
0.000000001
 43
0.00000001
 40
0.0
 40
0.0
 40
0.0
 40
0.0
 40
0.2451152664986072
 40
0.4999419905484637
 40
0.7547985919191248
 40
1.0
 40
1.0
 40
1.0
 40
1.0
 10
2.915184690424446
 20
54.67755043943723
 30
0.0
 10
2.910534794901352
 20
54.52987242297247
 30
0.0
 10
3.069258562235873
 20
54.22087914667817
 30
0.0
 10
3.525094526201506
 20
54.07183449207986
 30
0.0
 10
3.985874252518147
 20
54.19161431459219
 30
0.0
 10
4.160584478376096
 20
54.48977828584611
 30
0.0
 10
4.165159194691043
 20
54.63750819279889
 30
0.0
  0
SPLINE
  5
115
330
1F
100
AcDbEntity
  8
0
  6
Continuous
 62
     7
370
    15
100
AcDbSpline
210
0.0
220
0.0
230
1.0
 70
     8
 71
     3
 72
     9
 73
     5
 74
     0
 42
0.000000001
 43
0.00000001
 40
0.4999999999999973
 40
0.4999999999999973
 40
0.4999999999999973
 40
0.4999999999999973
 40
0.7452014080808725
 40
1.0
 40
1.0
 40
1.0
 40
1.0
 10
4.153069238158602
 20
54.63750596260319
 30
0.0
 10
4.148516848290902
 20
54.49003446781298
 30
0.0
 10
3.974359088902387
 20
54.19149569747916
 30
0.0
 10
3.670131764120498
 20
54.11228504663968
 30
0.0
 10
3.515910926850335
 20
54.11720896336391
 30
0.0
  0
SPLINE
  5
116
330
1F
100
AcDbEntity
  8
0
  6
Continuous
 62
     7
370
    15
100
AcDbSpline
210
0.0
220
0.0
230
1.0
 70
     8
 71
     3
 72
    14
 73
    10
 74
     0
 42
0.000000001
 43
0.00000001
 40
0.0
 40
0.0
 40
0.0
 40
0.0
 40
0.0231647908771244
 40
0.266859252609161
 40
0.5088896169847913
 40
0.632816530920992
 40
0.7573269320966568
 40
0.8800074490944509
 40
1.0
 40
1.0
 40
1.0
 40
1.0
 10
3.527987646732671
 20
55.19529585707594
 30
0.0
 10
3.535086174918982
 20
55.19622836424165
 30
0.0
 10
3.616861483682707
 20
55.20697088147885
 30
0.0
 10
3.774361200834498
 20
55.16498025754191
 30
0.0
 10
3.941775552122479
 20
55.07449331747583
 30
0.0
 10
4.04567212672377
 20
54.96079934703346
 30
0.0
 10
4.10606206490812
 20
54.86146903200473
 30
0.0
 10
4.147222491657239
 20
54.75213213355457
 30
0.0
 10
4.151134767420789
 20
54.67543149493837
 30
0.0
 10
4.153069238158603
 20
54.63750596260319
 30
0.0
  0
SPLINE
  5
11C
330
1F
100
AcDbEntity
  8
0
  6
Continuous
 62
     7
370
    15
100
AcDbSpline
210
0.0
220
0.0
230
1.0
 70
     8
 71
     3
 72
     8
 73
     4
 74
     0
 42
0.000000001
 43
0.00000001
 40
0.0
 40
0.0
 40
0.0
 40
0.0
 40
1.0
 40
1.0
 40
1.0
 40
1.0
 10
-4.040295905111172
 20
54.49611950864597
 30
0.0
 10
-3.856388671228651
 20
54.49611777048769
 30
0.0
 10
-3.67156046558784
 20
54.49611624911388
 30
0.0
 10
-3.485929246322087
 20
54.49611492343443
 30
0.0
  0
SPLINE
  5
11E
330
1F
100
AcDbEntity
  8
0
  6
Continuous
 62
     7
370
    15
100
AcDbSpline
210
0.0
220
0.0
230
1.0
 70
     8
 71
     3
 72
     8
 73
     4
 74
     0
 42
0.000000001
 43
0.00000001
 40
0.0
 40
0.0
 40
0.0
 40
0.0
 40
1.0
 40
1.0
 40
1.0
 40
1.0
 10
-3.218835259101219
 20
54.79681350151322
 30
0.0
 10
-3.49441462202816
 20
54.79681519191271
 30
0.0
 10
-3.76836234458117
 20
54.79681728795826
 30
0.0
 10
-4.040296256493686
 20
54.79681985803064
 30
0.0
  0
SPLINE
  5
11F
330
1F
100
AcDbEntity
  8
0
  6
Continuous
 62
     7
370
    15
100
AcDbSpline
210
0.0
220
0.0
230
1.0
 70
     8
 71
     3
 72
    29
 73
    25
 74
     0
 42
0.000000001
 43
0.00000001
 40
0.0
 40
0.0
 40
0.0
 40
0.0
 40
0.0255628915469489
 40
0.050686500918593
 40
0.0755459783997637
 40
0.1003220711363561
 40
0.1251973374663253
 40
0.1881034413759887
 40
0.2500783842944563
 40
0.3151042389623097
 40
0.374836489701679
 40
0.4361851173494296
 40
0.4995627789240742
 40
0.5610480258108702
 40
0.6243669322262663
 40
0.6859098029365324
 40
0.7490736967340097
 40
0.8104888162837219
 40
0.8739906849230927
 40
0.9086838372277315
 40
0.9377802920107968
 40
0.9618800036759897
 40
0.9820341026536387
 40
1.0
 40
1.0
 40
1.0
 40
1.0
 10
-3.271172944538064
 20
55.23215781162416
 30
0.0
 10
-3.301919028474716
 20
55.25414571819432
 30
0.0
 10
-3.362882844279202
 20
55.29774368302232
 30
0.0
 10
-3.459741932947313
 20
55.35282165402178
 30
0.0
 10
-3.559268218720116
 20
55.39932187132335
 30
0.0
 10
-3.661922410130537
 20
55.43654670955267
 30
0.0
 10
-3.820605693854869
 20
55.47909403221441
 30
0.0
 10
-4.039546041281938
 20
55.50122257528478
 30
0.0
 10
-4.312339655670113
 20
55.45264203116184
 30
0.0
 10
-4.561884265944931
 20
55.33830413954111
 30
0.0
 10
-4.758755449229872
 20
55.14156705782391
 30
0.0
 10
-4.874489700015403
 20
54.8845993636482
 30
0.0
 10
-4.88715164880147
 20
54.59881103075448
 30
0.0
 10
-4.814966160396184
 20
54.32131967157172
 30
0.0
 10
-4.659268070592751
 20
54.08814400733386
 30
0.0
 10
-4.443690360520598
 20
53.91087492401881
 30
0.0
 10
-4.185133260966701
 20
53.82098149908232
 30
0.0
 10
-3.910600061668787
 20
53.8037502677734
 30
0.0
 10
-3.680880827030348
 20
53.8525840561711
 30
0.0
 10
-3.506307121416929
 20
53.91813758996944
 30
0.0
 10
-3.390318488667686
 20
53.97646537482914
 30
0.0
 10
-3.303258261578569
 20
54.04131125355538
 30
0.0
 10
-3.241145143621664
 20
54.11326986479126
 30
0.0
 10
-3.225981931229915
 20
54.16910009727616
 30
0.0
 10
-3.218835531871538
 20
54.19541280248008
 30
0.0
  0
SPLINE
  5
120
330
1F
100
AcDbEntity
  8
0
  6
Continuous
 62
     7
370
    15
100
AcDbSpline
210
0.0
220
0.0
230
1.0
 70
     8
 71
     3
 72
     8
 73
     4
 74
     0
 42
0.000000001
 43
0.00000001
 40
0.0
 40
0.0
 40
0.0
 40
0.0
 40
1.0
 40
1.0
 40
1.0
 40
1.0
 10
-3.468529498684942
 20
55.00767880303603
 30
0.0
 10
-3.402842280241406
 20
55.08250510923884
 30
0.0
 10
-3.337055014234862
 20
55.15733144574808
 30
0.0
 10
-3.271172959254359
 20
55.2321578116215
 30
0.0
  0
SPLINE
  5
121
330
1F
100
AcDbEntity
  8
0
  6
Continuous
 62
     7
370
    15
100
AcDbSpline
210
0.0
220
0.0
230
1.0
 70
     8
 71
     3
 72
    29
 73
    25
 74
     0
 42
0.000000001
 43
0.00000001
 40
0.0
 40
0.0
 40
0.0
 40
0.0
 40
0.0171000492842313
 40
0.0335713364673149
 40
0.0499714303540958
 40
0.0668649574466972
 40
0.0847699323878682
 40
0.1041233298408014
 40
0.1252725405461159
 40
0.1866730385452757
 40
0.2500444897388892
 40
0.3131335036556026
 40
0.3749502425370646
 40
0.4391882345161293
 40
0.4994099017321617
 40
0.560401852001786
 40
0.6240344612409938
 40
0.6870399707280188
 40
0.7485133793159593
 40
0.7978556044854185
 40
0.8460892927295575
 40
0.8948384139753338
 40
0.9456775869042479
 40
1.0
 40
1.0
 40
1.0
 40
1.0
 10
-3.485928834499469
 20
54.41597535924303
 30
0.0
 10
-3.487977617250923
 20
54.39826752678422
 30
0.0
 10
-3.491999849816119
 20
54.3635029719165
 30
0.0
 10
-3.509057451841695
 20
54.31412386107715
 30
0.0
 10
-3.534211146678388
 20
54.26900730704354
 30
0.0
 10
-3.568042060067834
 20
54.22833585841047
 30
0.0
 10
-3.610179260787242
 20
54.19211201076202
 30
0.0
 10
-3.660579737876661
 20
54.16028451288612
 30
0.0
 10
-3.75409088489344
 20
54.11618427592846
 30
0.0
 10
-3.899439536437798
 20
54.08054387962291
 30
0.0
 10
-4.089541365587406
 20
54.09646774020482
 30
0.0
 10
-4.269786014117359
 20
54.15930873085539
 30
0.0
 10
-4.428062684598967
 20
54.2693140985252
 30
0.0
 10
-4.551664384580116
 20
54.41943344362154
 30
0.0
 10
-4.60473557029224
 20
54.60984445368511
 30
0.0
 10
-4.586119249007294
 20
54.80610580637424
 30
0.0
 10
-4.496820430360018
 20
54.98152085249674
 30
0.0
 10
-4.36150903153971
 20
55.12258597486475
 30
0.0
 10
-4.196316742972105
 20
55.19017859362818
 30
0.0
 10
-4.037683451364108
 20
55.20966029004759
 30
0.0
 10
-3.890248754849666
 20
55.20225610445539
 30
0.0
 10
-3.745181950780243
 20
55.16528573239709
 30
0.0
 10
-3.601902394981334
 20
55.10138907470375
 30
0.0
 10
-3.513957875853732
 20
55.0395977925513
 30
0.0
 10
-3.468529134445856
 20
55.00767880310198
 30
0.0
  0
SPLINE
  5
129
330
1F
100
AcDbEntity
  8
0
  6
Continuous
 62
     7
370
    15
100
AcDbSpline
210
0.0
220
0.0
230
1.0
 70
     8
 71
     3
 72
     8
 73
     4
 74
     0
 42
0.000000001
 43
0.00000001
 40
0.0
 40
0.0
 40
0.0
 40
0.0
 40
1.0
 40
1.0
 40
1.0
 40
1.0
 10
5.089628004346175
 20
53.84529975945873
 30
0.0
 10
5.003411892155173
 20
53.84529996629295
 30
0.0
 10
4.916967071099971
 20
53.84530014212396
 30
0.0
 10
4.83030589224837
 20
53.84530028926338
 30
0.0
  0
SPLINE
  5
12C
330
1F
100
AcDbEntity
  8
0
  6
Continuous
 62
     7
370
    15
100
AcDbSpline
210
0.0
220
0.0
230
1.0
 70
     8
 71
     3
 72
     8
 73
     4
 74
     0
 42
0.000000001
 43
0.00000001
 40
0.0
 40
0.0
 40
0.0
 40
0.0
 40
1.0
 40
1.0
 40
1.0
 40
1.0
 10
4.830289604708573
 20
55.46476230084663
 30
0.0
 10
4.916950177663387
 20
55.46476215361984
 30
0.0
 10
5.003394379508952
 20
55.4647619776989
 30
0.0
 10
5.089609859265952
 20
55.4647617707722
 30
0.0
  0
SPLINE
  5
12E
330
1F
100
AcDbEntity
  8
0
  6
Continuous
 62
     7
370
    15
100
AcDbSpline
210
0.0
220
0.0
230
1.0
 70
     8
 71
     3
 72
    54
 73
    50
 74
     0
 42
0.000000001
 43
0.00000001
 40
0.0
 40
0.0
 40
0.0
 40
0.0
 40
0.0252899618359431
 40
0.050225755408067
 40
0.0750020186257112
 40
0.0998171418964254
 40
0.1248685900890292
 40
0.1871792779693534
 40
0.2495029614147082
 40
0.2982751445222419
 40
0.3388224479713552
 40
0.3741528658651561
 40
0.4052505724502375
 40
0.4364843833919435
 40
0.4567769909573939
 40
0.4768719580922245
 40
0.4986591061497415
 40
0.5309109389980644
 40
0.5721447862257372
 40
0.623334632856354
 40
0.6582192016439243
 40
0.6873084602513149
 40
0.7106238384776513
 40
0.7282079428983079
 40
0.7401648358120678
 40
0.746866079532844
 40
0.7520511105315333
 40
0.7567575432877177
 40
0.7610568474853641
 40
0.7650424549758754
 40
0.7688310774176632
 40
0.7725579789773247
 40
0.7763650084188831
 40
0.7803855425586996
 40
0.7847333536734511
 40
0.7894988311082366
 40
0.7947508438625767
 40
0.8005409260813109
 40
0.8069075593923424
 40
0.8138796855133176
 40
0.8214793316957671
 40
0.8474675033281505
 40
0.8749697062061728
 40
0.8959385093743686
 40
0.9166075440974673
 40
0.937161698300537
 40
0.9577889508716206
 40
0.97867530851979
 40
1.0
 40
1.0
 40
1.0
 40
1.0
 10
5.468411177820351
 20
54.16074761935885
 30
0.0
 10
5.498238303621425
 20
54.13417406784448
 30
0.0
 10
5.557474847145234
 20
54.08139910885701
 30
0.0
 10
5.653452972062933
 20
54.01323915615364
 30
0.0
 10
5.753512709057615
 20
53.95423841841463
 30
0.0
 10
5.858188746862666
 20
53.90509816746347
 30
0.0
 10
6.020433493859933
 20
53.8463554019718
 30
0.0
 10
6.246486291099433
 20
53.80306450835737
 30
0.0
 10
6.509415593892873
 20
53.82108947533937
 30
0.0
 10
6.730795170270559
 20
53.88004622930509
 30
0.0
 10
6.899599641242812
 20
53.97013596592981
 30
0.0
 10
7.014210694258485
 20
54.09594640190873
 30
0.0
 10
7.07519663221998
 20
54.24357858021733
 30
0.0
 10
7.086180635442638
 20
54.3803002512695
 30
0.0
 10
7.06472670967923
 20
54.49620344175266
 30
0.0
 10
7.016534327512089
 20
54.5846483826935
 30
0.0
 10
6.934128365156555
 20
54.66658875507635
 30
0.0
 10
6.805726597629212
 20
54.73565257495727
 30
0.0
 10
6.626253134273418
 20
54.79129001692007
 30
0.0
 10
6.437130461499558
 20
54.82311819427343
 30
0.0
 10
6.26471626431769
 20
54.84663238631737
 30
0.0
 10
6.134052863565324
 20
54.86894207142856
 30
0.0
 10
6.029482988153533
 20
54.88974812181235
 30
0.0
 10
5.9511293493779
 20
54.91039320976654
 30
0.0
 10
5.898575892456488
 20
54.92803140119862
 30
0.0
 10
5.866529089442397
 20
54.94964254261559
 30
0.0
 10
5.855694904057279
 20
54.97478519848187
 30
0.0
 10
5.846705737234127
 20
54.99572149676324
 30
0.0
 10
5.841427272653313
 20
55.01626528066128
 30
0.0
 10
5.839324164089336
 20
55.03589292306432
 30
0.0
 10
5.840586659420659
 20
55.05470742627294
 30
0.0
 10
5.845213217105695
 20
55.07261187353074
 30
0.0
 10
5.853188661227102
 20
55.08953891530643
 30
0.0
 10
5.864448180414995
 20
55.10545206114226
 30
0.0
 10
5.878935214795781
 20
55.12036460868019
 30
0.0
 10
5.896618979145271
 20
55.1343083990884
 30
0.0
 10
5.917489616710801
 20
55.14731285390739
 30
0.0
 10
5.941546870992859
 20
55.15939681108084
 30
0.0
 10
5.968790965615639
 20
55.17057520668533
 30
0.0
 10
5.99922738488677
 20
55.18083874832514
 30
0.0
 10
6.058965989758064
 20
55.19757808167058
 30
0.0
 10
6.151120053158481
 20
55.21275891161992
 30
0.0
 10
6.264229168038506
 20
55.21291451638122
 30
0.0
 10
6.368166533272857
 20
55.20103564472056
 30
0.0
 10
6.460121686589034
 20
55.18101087414507
 30
0.0
 10
6.549183286887039
 20
55.15173561111719
 30
0.0
 10
6.635242326607347
 20
55.11307574485791
 30
0.0
 10
6.718728526000184
 20
55.06567715270838
 30
0.0
 10
6.770886461386559
 20
55.02713800065295
 30
0.0
 10
6.797236241913843
 20
55.00766832282067
 30
0.0
  0
SPLINE
  5
131
330
1F
100
AcDbEntity
  8
0
  6
Continuous
 62
     7
370
    15
100
AcDbSpline
210
0.0
220
0.0
230
1.0
 70
     8
 71
     3
 72
     8
 73
     4
 74
     0
 42
0.000000001
 43
0.00000001
 40
0.0
 40
0.0
 40
0.0
 40
0.0
 40
1.0
 40
1.0
 40
1.0
 40
1.0
 10
5.663373424582655
 20
54.37707929227853
 30
0.0
 10
5.5985328103352
 20
54.304968749326
 30
0.0
 10
5.533543599142219
 20
54.23285819134882
 30
0.0
 10
5.468411180765692
 20
54.16074761935941
 30
0.0
  0
SPLINE
  5
132
330
1F
100
AcDbEntity
  8
0
  6
Continuous
 62
     7
370
    15
100
AcDbSpline
210
0.0
220
0.0
230
1.0
 70
     8
 71
     3
 72
    42
 73
    38
 74
     0
 42
0.000000001
 43
0.00000001
 40
0.0
 40
0.0
 40
0.0
 40
0.0
 40
0.0141165727447714
 40
0.0292307505734237
 40
0.0455158488325283
 40
0.0631106190571873
 40
0.0821251654603018
 40
0.1026467506478912
 40
0.1247447851792206
 40
0.1917460813272125
 40
0.2491264274961816
 40
0.2843831584121629
 40
0.3146203360630987
 40
0.3431325648696709
 40
0.3737758566555705
 40
0.4049490675771237
 40
0.4334235574281745
 40
0.4635197982186673
 40
0.4989703028492673
 40
0.5272082816728699
 40
0.5612467718234646
 40
0.598736126183248
 40
0.6235265497312392
 40
0.6493872445785519
 40
0.6699152140359484
 40
0.6857548180100845
 40
0.7010355294407017
 40
0.7128836698938866
 40
0.723391481970667
 40
0.735375088615057
 40
0.7508656409943667
 40
0.7766684254588974
 40
0.8052910672119834
 40
0.8380268428994585
 40
0.8757482512553945
 40
0.9379029806723753
 40
1.0
 40
1.0
 40
1.0
 40
1.0
 10
6.993161035549656
 20
55.21529316161455
 30
0.0
 10
6.977649290054274
 20
55.23074726365573
 30
0.0
 10
6.945529598417234
 20
55.26274759477501
 30
0.0
 10
6.88906250652959
 20
55.30384328561244
 30
0.0
 10
6.824973631542394
 20
55.34185544890213
 30
0.0
 10
6.752591005227027
 20
55.37611612624782
 30
0.0
 10
6.672047546266028
 20
55.40686705042186
 30
0.0
 10
6.583197625669001
 20
55.43404056777246
 30
0.0
 10
6.422747774086835
 20
55.47321328015276
 30
0.0
 10
6.201999821663756
 20
55.50330841610618
 30
0.0
 10
5.957852652163863
 20
55.47387624544952
 30
0.0
 10
5.780785913178625
 20
55.4019660113827
 30
0.0
 10
5.663892721072346
 20
55.3073967985388
 30
0.0
 10
5.591937310069096
 20
55.17887467555338
 30
0.0
 10
5.569473758464815
 20
55.03133283932837
 30
0.0
 10
5.583093835066715
 20
54.8824579859879
 30
0.0
 10
5.649586135354049
 20
54.74947939734032
 30
0.0
 10
5.76525793800187
 20
54.65236843657861
 30
0.0
 10
5.900610369940202
 20
54.59733355462093
 30
0.0
 10
6.047170452683514
 20
54.56735803120949
 30
0.0
 10
6.198453002988099
 20
54.55639914424493
 30
0.0
 10
6.343835636070909
 20
54.55007409676349
 30
0.0
 10
6.476212154548093
 20
54.5387562311912
 30
0.0
 10
6.581672186164305
 20
54.51957819632292
 30
0.0
 10
6.671596325397523
 20
54.49125997904769
 30
0.0
 10
6.739210015199411
 20
54.44872203277118
 30
0.0
 10
6.7840962550283
 20
54.39784432660155
 30
0.0
 10
6.810954549762094
 20
54.34186490318949
 30
0.0
 10
6.80719279125105
 20
54.28305096572239
 30
0.0
 10
6.773881838465623
 20
54.23066892717409
 30
0.0
 10
6.710870320133238
 20
54.17700514943002
 30
0.0
 10
6.615302644959206
 20
54.12779304389282
 30
0.0
 10
6.486150151565859
 20
54.09982146189984
 30
0.0
 10
6.336340367916055
 20
54.09789747370419
 30
0.0
 10
6.137254878722089
 20
54.12387126573081
 30
0.0
 10
5.896026735769381
 20
54.19745339998583
 30
0.0
 10
5.740900211582453
 20
54.31722253748917
 30
0.0
 10
5.663372974597943
 20
54.37707929219515
 30
0.0
  0
SPLINE
  5
133
330
1F
100
AcDbEntity
  8
0
  6
Continuous
 62
     7
370
    15
100
AcDbSpline
210
0.0
220
0.0
230
1.0
 70
     8
 71
     3
 72
     8
 73
     4
 74
     0
 42
0.000000001
 43
0.00000001
 40
0.0
 40
0.0
 40
0.0
 40
0.0
 40
1.0
 40
1.0
 40
1.0
 40
1.0
 10
6.797237132477577
 20
55.00766832298609
 30
0.0
 10
6.862742270470721
 20
55.07687662590299
 30
0.0
 10
6.928052241839909
 20
55.14608490582496
 30
0.0
 10
6.993161171905935
 20
55.21529316163986
 30
0.0
  0
SPLINE
  5
135
330
1F
100
AcDbEntity
  8
0
  6
Continuous
 62
     7
370
    15
100
AcDbSpline
210
0.0
220
0.0
230
1.0
 70
     8
 71
     3
 72
     8
 73
     4
 74
     0
 42
0.000000001
 43
0.00000001
 40
0.0
 40
0.0
 40
0.0
 40
0.0
 40
1.0
 40
1.0
 40
1.0
 40
1.0
 10
-5.473905485832967
 20
55.4575909766597
 30
0.0
 10
-5.388418234453107
 20
55.45758952573254
 30
0.0
 10
-5.302648988820375
 20
55.45758813713908
 30
0.0
 10
-5.216610342101765
 20
55.45758680864898
 30
0.0
  0
SPLINE
  5
13A
330
1F
100
AcDbEntity
  8
0
  6
Continuous
 62
     7
370
    15
100
AcDbSpline
210
0.0
220
0.0
230
1.0
 70
     8
 71
     3
 72
     8
 73
     4
 74
     0
 42
0.000000001
 43
0.00000001
 40
0.0
 40
0.0
 40
0.0
 40
0.0
 40
1.0
 40
1.0
 40
1.0
 40
1.0
 10
-6.574965413372077
 20
55.45761369190072
 30
0.0
 10
-6.48775764222286
 20
55.45761154714312
 30
0.0
 10
-6.400177201474389
 20
55.457609482088
 30
0.0
 10
-6.312238358352541
 20
55.45760749422723
 30
0.0
  0
SPLINE
  5
13B
330
1F
100
AcDbEntity
  8
0
  6
Continuous
 62
     7
370
    15
100
AcDbSpline
210
0.0
220
0.0
230
1.0
 70
     8
 71
     3
 72
     8
 73
     4
 74
     0
 42
0.000000001
 43
0.00000001
 40
0.0
 40
0.0
 40
0.0
 40
0.0
 40
1.0
 40
1.0
 40
1.0
 40
1.0
 10
-6.312238358352542
 20
55.45760749422723
 30
0.0
 10
-6.036173994843203
 20
55.08476384164362
 30
0.0
 10
-5.756578270985565
 20
54.7119209783653
 30
0.0
 10
-5.473899541289292
 20
54.33907882526889
 30
0.0
  0
SPLINE
  5
13D
330
1F
100
AcDbEntity
  8
0
  6
Continuous
 62
     7
370
    15
100
AcDbSpline
210
0.0
220
0.0
230
1.0
 70
     8
 71
     3
 72
     8
 73
     4
 74
     0
 42
0.000000001
 43
0.00000001
 40
0.0
 40
0.0
 40
0.0
 40
0.0
 40
1.0
 40
1.0
 40
1.0
 40
1.0
 10
-5.216603244425756
 20
53.85987514061685
 30
0.0
 10
-5.302641440446658
 20
53.85987646921342
 30
0.0
 10
-5.388410221445363
 20
53.85987785791579
 30
0.0
 10
-5.473896994323125
 20
53.85987930895419
 30
0.0
  0
SPLINE
  5
13E
330
1F
100
AcDbEntity
  8
0
  6
Continuous
 62
     7
370
    15
100
AcDbSpline
210
0.0
220
0.0
230
1.0
 70
     8
 71
     3
 72
     8
 73
     4
 74
     0
 42
0.000000001
 43
0.00000001
 40
0.0
 40
0.0
 40
0.0
 40
0.0
 40
1.0
 40
1.0
 40
1.0
 40
1.0
 10
-5.473896994323126
 20
53.85987930895419
 30
0.0
 10
-5.756575249526995
 20
54.23272146216096
 30
0.0
 10
-6.036170453423119
 20
54.60556432555774
 30
0.0
 10
-6.312234252335859
 20
54.97840797826781
 30
0.0
  0
SPLINE
  5
140
330
1F
100
AcDbEntity
  8
0
  6
Continuous
 62
     7
370
    15
100
AcDbSpline
210
0.0
220
0.0
230
1.0
 70
     8
 71
     3
 72
     8
 73
     4
 74
     0
 42
0.000000001
 43
0.00000001
 40
0.0
 40
0.0
 40
0.0
 40
0.0
 40
1.0
 40
1.0
 40
1.0
 40
1.0
 10
-6.312224667872251
 20
53.85989582770645
 30
0.0
 10
-6.40016291122924
 20
53.85989781570166
 30
0.0
 10
-6.487742737108412
 20
53.85989988089368
 30
0.0
 10
-6.57494987838401
 20
53.85990202579094
 30
0.0
  0
SPLINE
  5
145
330
1F
100
AcDbEntity
  8
0
  6
Continuous
 62
     7
370
    15
100
AcDbSpline
210
0.0
220
0.0
230
1.0
 70
     8
 71
     3
 72
     8
 73
     4
 74
     0
 42
0.000000001
 43
0.00000001
 40
0.0
 40
0.0
 40
0.0
 40
0.0
 40
1.0
 40
1.0
 40
1.0
 40
1.0
 10
8.641935733666182
 20
53.84526464202821
 30
0.0
 10
8.242937691380163
 20
53.84527276486495
 30
0.0
 10
7.833285943017838
 20
53.84527919978732
 30
0.0
 10
7.414544997533855
 20
53.84528424531931
 30
0.0
  0
SPLINE
  5
149
330
1F
100
AcDbEntity
  8
0
  6
Continuous
 62
     7
370
    15
100
AcDbSpline
210
0.0
220
0.0
230
1.0
 70
     8
 71
     3
 72
     8
 73
     4
 74
     0
 42
0.000000001
 43
0.00000001
 40
0.0
 40
0.0
 40
0.0
 40
0.0
 40
1.0
 40
1.0
 40
1.0
 40
1.0
 10
7.414505978342567
 20
55.46474625343934
 30
0.0
 10
7.819595188774876
 20
55.46474137166202
 30
0.0
 10
8.216178084511611
 20
55.46473518958406
 30
0.0
 10
8.602837081043928
 20
55.4647274367549
 30
0.0
  0
SPLINE
  5
14B
330
1F
100
AcDbEntity
  8
0
  6
Continuous
 62
     7
370
    15
100
AcDbSpline
210
0.0
220
0.0
230
1.0
 70
     8
 71
     3
 72
     8
 73
     4
 74
     0
 42
0.000000001
 43
0.00000001
 40
0.0
 40
0.0
 40
0.0
 40
0.0
 40
1.0
 40
1.0
 40
1.0
 40
1.0
 10
8.602846534844105
 20
55.17564745727999
 30
0.0
 10
8.299766244728172
 20
55.17565353416176
 30
0.0
 10
7.990589952800635
 20
55.17565864616802
 30
0.0
 10
7.675996953761357
 20
55.1756629230169
 30
0.0
  0
SPLINE
  5
14D
330
1F
100
AcDbEntity
  8
0
  6
Continuous
 62
     7
370
    15
100
AcDbSpline
210
0.0
220
0.0
230
1.0
 70
     8
 71
     3
 72
     8
 73
     4
 74
     0
 42
0.000000001
 43
0.00000001
 40
0.0
 40
0.0
 40
0.0
 40
0.0
 40
1.0
 40
1.0
 40
1.0
 40
1.0
 10
7.676006458509868
 20
54.80813086174974
 30
0.0
 10
7.858993709521767
 20
54.80812837414306
 30
0.0
 10
8.040148807253768
 20
54.80812560405324
 30
0.0
 10
8.219337031242402
 20
54.80812252579026
 30
0.0
  0
SPLINE
  5
14F
330
1F
100
AcDbEntity
  8
0
  6
Continuous
 62
     7
370
    15
100
AcDbSpline
210
0.0
220
0.0
230
1.0
 70
     8
 71
     3
 72
     8
 73
     4
 74
     0
 42
0.000000001
 43
0.00000001
 40
0.0
 40
0.0
 40
0.0
 40
0.0
 40
1.0
 40
1.0
 40
1.0
 40
1.0
 10
8.219345051288618
 20
54.5386144179899
 30
0.0
 10
8.040156466859882
 20
54.53861749619493
 30
0.0
 10
7.859001018906008
 20
54.53862026622858
 30
0.0
 10
7.676013428150718
 20
54.53862275378118
 30
0.0
  0
SPLINE
  5
151
330
1F
100
AcDbEntity
  8
0
  6
Continuous
 62
     7
370
    15
100
AcDbSpline
210
0.0
220
0.0
230
1.0
 70
     8
 71
     3
 72
     8
 73
     4
 74
     0
 42
0.000000001
 43
0.00000001
 40
0.0
 40
0.0
 40
0.0
 40
0.0
 40
1.0
 40
1.0
 40
1.0
 40
1.0
 10
7.676024326313073
 20
54.11719598027076
 30
0.0
 10
8.004140901407029
 20
54.11719151998373
 30
0.0
 10
8.3263650724734
 20
54.11718615119987
 30
0.0
 10
8.641926757682347
 20
54.11717972684337
 30
0.0
  0
SPLINE
  5
154
330
1F
100
AcDbEntity
  8
0
  6
Continuous
 62
     7
370
    15
100
AcDbSpline
210
0.0
220
0.0
230
1.0
 70
     8
 71
     3
 72
     8
 73
     4
 74
     0
 42
0.000000001
 43
0.00000001
 40
0.0
 40
0.0
 40
0.0
 40
0.0
 40
1.0
 40
1.0
 40
1.0
 40
1.0
 10
-7.583736334594521
 20
55.45764277837706
 30
0.0
 10
-7.349797755076423
 20
54.92506436031475
 30
0.0
 10
-7.112550834046392
 20
54.39248668198671
 30
0.0
 10
-6.872294399128713
 20
53.85990969115595
 30
0.0
  0
SPLINE
  5
156
330
1F
100
AcDbEntity
  8
0
  6
Continuous
 62
     7
370
    15
100
AcDbSpline
210
0.0
220
0.0
230
1.0
 70
     8
 71
     3
 72
     8
 73
     4
 74
     0
 42
0.000000001
 43
0.00000001
 40
0.0
 40
0.0
 40
0.0
 40
0.0
 40
1.0
 40
1.0
 40
1.0
 40
1.0
 10
-7.693414510171052
 20
55.07459225751954
 30
0.0
 10
-7.618714797096186
 20
54.90377024224524
 30
0.0
 10
-7.543670047659672
 20
54.73294830388675
 30
0.0
 10
-7.468289989452363
 20
54.5621264407481
 30
0.0
  0
SPLINE
  5
157
330
1F
100
AcDbEntity
  8
0
  6
Continuous
 62
     7
370
    15
100
AcDbSpline
210
0.0
220
0.0
230
1.0
 70
     8
 71
     3
 72
     8
 73
     4
 74
     0
 42
0.000000001
 43
0.00000001
 40
0.0
 40
0.0
 40
0.0
 40
0.0
 40
1.0
 40
1.0
 40
1.0
 40
1.0
 10
-7.906721531385775
 20
54.56214154546146
 30
0.0
 10
-7.835940692738255
 20
54.73295837223169
 30
0.0
 10
-7.764835536639425
 20
54.90377527674095
 30
0.0
 10
-7.693414510171048
 20
55.07459225751954
 30
0.0
  0
SPLINE
  5
158
330
1F
100
AcDbEntity
  8
0
  6
Continuous
 62
     7
370
    15
100
AcDbSpline
210
0.0
220
0.0
230
1.0
 70
     8
 71
     3
 72
     8
 73
     4
 74
     0
 42
0.000000001
 43
0.00000001
 40
0.0
 40
0.0
 40
0.0
 40
0.0
 40
1.0
 40
1.0
 40
1.0
 40
1.0
 10
-7.468289989452363
 20
54.5621264407481
 30
0.0
 10
-7.615742051724843
 20
54.56213120256381
 30
0.0
 10
-7.761910091891311
 20
54.56213623325434
 30
0.0
 10
-7.906721531385777
 20
54.56214154546146
 30
0.0
  0
SPLINE
  5
159
330
1F
100
AcDbEntity
  8
0
  6
Continuous
 62
     7
370
    15
100
AcDbSpline
210
0.0
220
0.0
230
1.0
 70
     8
 71
     3
 72
     8
 73
     4
 74
     0
 42
0.000000001
 43
0.00000001
 40
0.0
 40
0.0
 40
0.0
 40
0.0
 40
1.0
 40
1.0
 40
1.0
 40
1.0
 10
-8.476516142799523
 20
53.85996511967384
 30
0.0
 10
-8.255770352509524
 20
54.39252605016654
 30
0.0
 10
-8.031469258831192
 20
54.92508781721139
 30
0.0
 10
-7.803885831571384
 20
55.45765037344275
 30
0.0
  0
SPLINE
  5
15A
330
1F
100
AcDbEntity
  8
0
  6
Continuous
 62
     7
370
    15
100
AcDbSpline
210
0.0
220
0.0
230
1.0
 70
     8
 71
     3
 72
     8
 73
     4
 74
     0
 42
0.000000001
 43
0.00000001
 40
0.0
 40
0.0
 40
0.0
 40
0.0
 40
1.0
 40
1.0
 40
1.0
 40
1.0
 10
-7.803885831571384
 20
55.45765037344275
 30
0.0
 10
-7.730837459112459
 20
55.45764777203266
 30
0.0
 10
-7.657451229393812
 20
55.45764524087782
 30
0.0
 10
-7.583736334594517
 20
55.45764277837706
 30
0.0
  0
SPLINE
  5
15B
330
1F
100
AcDbEntity
  8
0
  6
Continuous
 62
     7
370
    15
100
AcDbSpline
210
0.0
220
0.0
230
1.0
 70
     8
 71
     3
 72
     8
 73
     4
 74
     0
 42
0.000000001
 43
0.00000001
 40
0.0
 40
0.0
 40
0.0
 40
0.0
 40
1.0
 40
1.0
 40
1.0
 40
1.0
 10
-6.872294399128712
 20
53.85990969115595
 30
0.0
 10
-6.96752779982118
 20
53.85991226147091
 30
0.0
 10
-7.06228810758128
 20
53.85991493221065
 30
0.0
 10
-7.156556540692984
 20
53.85991770666387
 30
0.0
  0
SPLINE
  5
15C
330
1F
100
AcDbEntity
  8
0
  6
Continuous
 62
     7
370
    15
100
AcDbSpline
210
0.0
220
0.0
230
1.0
 70
     8
 71
     3
 72
     8
 73
     4
 74
     0
 42
0.000000001
 43
0.00000001
 40
0.0
 40
0.0
 40
0.0
 40
0.0
 40
1.0
 40
1.0
 40
1.0
 40
1.0
 10
-7.156556540692984
 20
53.85991770666387
 30
0.0
 10
-7.220235880016199
 20
54.0025204093475
 30
0.0
 10
-7.283690931963961
 20
54.14512316281139
 30
0.0
 10
-7.34691596424055
 20
54.28772596805764
 30
0.0
  0
SPLINE
  5
15D
330
1F
100
AcDbEntity
  8
0
  6
Continuous
 62
     7
370
    15
100
AcDbSpline
210
0.0
220
0.0
230
1.0
 70
     8
 71
     3
 72
     8
 73
     4
 74
     0
 42
0.000000001
 43
0.00000001
 40
0.0
 40
0.0
 40
0.0
 40
0.0
 40
1.0
 40
1.0
 40
1.0
 40
1.0
 10
-7.34691596424055
 20
54.28772596805764
 30
0.0
 10
-7.575940642536645
 20
54.28773310339885
 30
0.0
 10
-7.801944373115228
 20
54.28774087299981
 30
0.0
 10
-8.024659024761624
 20
54.28774932356306
 30
0.0
  0
SPLINE
  5
15E
330
1F
100
AcDbEntity
  8
0
  6
Continuous
 62
     7
370
    15
100
AcDbSpline
210
0.0
220
0.0
230
1.0
 70
     8
 71
     3
 72
     8
 73
     4
 74
     0
 42
0.000000001
 43
0.00000001
 40
0.0
 40
0.0
 40
0.0
 40
0.0
 40
1.0
 40
1.0
 40
1.0
 40
1.0
 10
-8.024659024761624
 20
54.28774932356306
 30
0.0
 10
-8.090287863248811
 20
54.1451509730031
 30
0.0
 10
-8.155630956323597
 20
54.0025526905391
 30
0.0
 10
-8.220681562068178
 20
53.85995447734104
 30
0.0
  0
SPLINE
  5
15F
330
1F
100
AcDbEntity
  8
0
  6
Continuous
 62
     7
370
    15
100
AcDbSpline
210
0.0
220
0.0
230
1.0
 70
     8
 71
     3
 72
     8
 73
     4
 74
     0
 42
0.000000001
 43
0.00000001
 40
0.0
 40
0.0
 40
0.0
 40
0.0
 40
1.0
 40
1.0
 40
1.0
 40
1.0
 10
-8.220681562068178
 20
53.85995447734104
 30
0.0
 10
-8.306473254398085
 20
53.85995791903686
 30
0.0
 10
-8.391756543424936
 20
53.85996146559846
 30
0.0
 10
-8.476516142799523
 20
53.85996511967384
 30
0.0
  0
SPLINE
  5
163
330
1F
100
AcDbEntity
  8
0
  6
Continuous
 62
     7
370
    15
100
AcDbSpline
210
0.0
220
0.0
230
1.0
 70
     8
 71
     3
 72
     8
 73
     4
 74
     0
 42
0.000000001
 43
0.00000001
 40
0.0
 40
0.0
 40
0.0
 40
0.0
 40
1.0
 40
1.0
 40
1.0
 40
1.0
 10
-7.444107721200355
 20
54.56213076550964
 30
0.0
 10
-7.591100041560893
 20
54.5621356075432
 30
0.0
 10
-7.736812343275592
 20
54.56214071761312
 30
0.0
 10
-7.881172274073039
 20
54.56214610832178
 30
0.0
  0
SPLINE
  5
164
330
1F
100
AcDbEntity
  8
0
  6
Continuous
 62
     7
370
    15
100
AcDbSpline
210
0.0
220
0.0
230
1.0
 70
     8
 71
     3
 72
     9
 73
     5
 74
     0
 42
0.000000001
 43
0.00000001
 40
0.0
 40
0.0
 40
0.0
 40
0.0
 40
0.5937466900814171
 40
1.0
 40
1.0
 40
1.0
 40
1.0
 10
-7.881172274073037
 20
54.56214610832178
 30
0.0
 10
-7.841610764853011
 20
54.6578035276214
 30
0.0
 10
-7.774980483150552
 20
54.81891165823927
 30
0.0
 10
-7.707899023087897
 20
54.98001984355716
 30
0.0
 10
-7.680646957903277
 20
55.04547057709752
 30
0.0
  0
SPLINE
  5
167
330
1F
100
AcDbEntity
  8
0
  6
Continuous
 62
     7
370
    15
100
AcDbSpline
210
0.0
220
0.0
230
1.0
 70
     8
 71
     3
 72
    19
 73
    15
 74
     0
 42
0.000000001
 43
0.00000001
 40
0.0
 40
0.0
 40
0.0
 40
0.0
 40
0.051276575009118
 40
0.1006654300042776
 40
0.1494867832863121
 40
0.1991061788227445
 40
0.2508259955359164
 40
0.3753547822935794
 40
0.5002337408306802
 40
0.6250594805287598
 40
0.7496414618182693
 40
0.8344259645715653
 40
0.9157949127678742
 40
1.0
 40
1.0
 40
1.0
 40
1.0
 10
9.542906012064226
 20
55.17562479960003
 30
0.0
 10
9.542355647536233
 20
55.19320701465125
 30
0.0
 10
9.541275179859532
 20
55.22772416479738
 30
0.0
 10
9.531435686203535
 20
55.27782068278453
 30
0.0
 10
9.51543814543217
 20
55.32472407567346
 30
0.0
 10
9.492736858187941
 20
55.36834346829644
 30
0.0
 10
9.45079853202046
 20
55.42650304013375
 30
0.0
 10
9.379040937038711
 20
55.48700972237941
 30
0.0
 10
9.27215199776452
 20
55.50942235950507
 30
0.0
 10
9.16461044017181
 20
55.48699494617604
 30
0.0
 10
9.083718677845566
 20
55.41997838568857
 30
0.0
 10
9.031303037602868
 20
55.34170865780097
 30
0.0
 10
9.002068801297531
 20
55.26152526390571
 30
0.0
 10
8.998968697149824
 20
55.20459276248424
 30
0.0
 10
8.997392094033817
 20
55.17563890968879
 30
0.0
  0
SPLINE
  5
168
330
1F
100
AcDbEntity
  8
0
  6
Continuous
 62
     7
370
    15
100
AcDbSpline
210
0.0
220
0.0
230
1.0
 70
     8
 71
     3
 72
    19
 73
    15
 74
     0
 42
0.000000001
 43
0.00000001
 40
0.0
 40
0.0
 40
0.0
 40
0.0
 40
0.0512765657690199
 40
0.100665414019229
 40
0.1494867652186934
 40
0.1991061657469276
 40
0.2508259967269927
 40
0.3753547740327782
 40
0.5002337419610422
 40
0.6250594989519866
 40
0.7496414618332681
 40
0.8344259631648714
 40
0.915794909071922
 40
1.0
 40
1.0
 40
1.0
 40
1.0
 10
8.997392094033813
 20
55.17563890968879
 30
0.0
 10
8.997957973177925
 20
55.15805669574292
 30
0.0
 10
8.999068898948249
 20
55.1235395470282
 30
0.0
 10
9.009180871027523
 20
55.07344306735962
 30
0.0
 10
9.025599499603697
 20
55.0265397365235
 30
0.0
 10
9.04885200470146
 20
54.98292042718844
 30
0.0
 10
9.09169487921261
 20
54.92476100695664
 30
0.0
 10
9.164631663534722
 20
54.86425453770416
 30
0.0
 10
9.27214179908499
 20
54.84184199679132
 30
0.0
 10
9.379063296531713
 20
54.86426927638055
 30
0.0
 10
9.458647793161415
 20
54.93128560799765
 30
0.0
 10
9.509891547585163
 20
55.00955515117112
 30
0.0
 10
9.538360733466575
 20
55.08973844244458
 30
0.0
 10
9.54137371590707
 20
55.14667094513459
 30
0.0
 10
9.542906012064222
 20
55.17562479959992
 30
0.0
  0
SPLINE
  5
169
330
1F
100
AcDbEntity
  8
0
  6
Continuous
 62
     7
370
    15
100
AcDbSpline
210
0.0
220
0.0
230
1.0
 70
     8
 71
     3
 72
    11
 73
     7
 74
     0
 42
0.000000001
 43
0.00000001
 40
0.0
 40
0.0
 40
0.0
 40
0.0
 40
0.1246469580037884
 40
0.3746469193895466
 40
0.8753528410701246
 40
1.0
 40
1.0
 40
1.0
 40
1.0
 10
9.492198785898214
 20
55.17562623296656
 30
0.0
 10
9.4921978467342
 20
55.21013617305081
 30
0.0
 10
9.475020980970154
 20
55.31486724830681
 30
0.0
 10
9.321737838790721
 20
55.49878938220787
 30
0.0
 10
9.078725200137889
 20
55.38496095422396
 30
0.0
 10
9.04939100315656
 20
55.2101476798873
 30
0.0
 10
9.049391799190387
 20
55.17563768415079
 30
0.0
  0
SPLINE
  5
16A
330
1F
100
AcDbEntity
  8
0
  6
Continuous
 62
     7
370
    15
100
AcDbSpline
210
0.0
220
0.0
230
1.0
 70
     8
 71
     3
 72
    11
 73
     7
 74
     0
 42
0.000000001
 43
0.00000001
 40
0.0
 40
0.0
 40
0.0
 40
0.0
 40
0.1246469414382947
 40
0.3746469243027244
 40
0.8753528680036066
 40
1.0
 40
1.0
 40
1.0
 40
1.0
 10
9.049391799190387
 20
55.17563768415079
 30
0.0
 10
9.049393511609775
 20
55.141127741546
 30
0.0
 10
9.066975125336674
 20
55.03639670723326
 30
0.0
 10
9.223211919143765
 20
54.85247509601921
 30
0.0
 10
9.46354574348888
 20
54.96630303672412
 30
0.0
 10
9.492199725063731
 20
55.1411162376525
 30
0.0
 10
9.492198785898214
 20
55.17562623296656
 30
0.0
  0
SPLINE
  5
16C
330
1F
100
AcDbEntity
  8
0
  6
Continuous
 62
     7
370
    15
100
AcDbSpline
210
0.0
220
0.0
230
1.0
 70
     8
 71
     3
 72
     9
 73
     5
 74
     0
 42
0.000000001
 43
0.00000001
 40
0.0
 40
0.0
 40
0.0
 40
0.0
 40
0.1246471319963934
 40
0.3750000000000025
 40
0.3750000000000025
 40
0.3750000000000025
 40
0.3750000000000025
 10
9.46349911492995
 20
55.17562085700922
 30
0.0
 10
9.463500070220366
 20
55.14116501027588
 30
0.0
 10
9.446371028667578
 20
55.03621699425953
 30
0.0
 10
9.377965806453602
 20
54.9650089895225
 30
0.0
 10
9.324869078925161
 20
54.93917426442741
 30
0.0
  0
SPLINE
  5
16D
330
1F
100
AcDbEntity
  8
0
  6
Continuous
 62
     7
370
    15
100
AcDbSpline
210
0.0
220
0.0
230
1.0
 70
     8
 71
     3
 72
     9
 73
     5
 74
     0
 42
0.000000001
 43
0.00000001
 40
0.7500000000104526
 40
0.7500000000104526
 40
0.7500000000104526
 40
0.7500000000104526
 40
0.8753530585617053
 40
1.0
 40
1.0
 40
1.0
 40
1.0
 10
9.087925826344199
 20
54.98869264970718
 30
0.0
 10
9.06734387985525
 20
55.01290181680663
 30
0.0
 10
9.033770089792995
 20
55.07121073244092
 30
0.0
 10
9.0220745023964
 20
55.14117678007158
 30
0.0
 10
9.02207277748612
 20
55.17563257417757
 30
0.0
  0
SPLINE
  5
16F
330
1F
100
AcDbEntity
  8
0
  6
Continuous
 62
     7
370
    15
100
AcDbSpline
210
0.0
220
0.0
230
1.0
 70
     8
 71
     3
 72
    11
 73
     7
 74
     0
 42
0.000000001
 43
0.00000001
 40
0.0
 40
0.0
 40
0.0
 40
0.0
 40
0.1246471589298754
 40
0.6253530806104534
 40
0.8753530419962116
 40
1.0
 40
1.0
 40
1.0
 40
1.0
 10
9.02207277748612
 20
55.17563257417757
 30
0.0
 10
9.022071964693373
 20
55.21008842132591
 30
0.0
 10
9.051314590515023
 20
55.38510066665792
 30
0.0
 10
9.29356946506964
 20
55.49874041216685
 30
0.0
 10
9.4463747847194
 20
55.31492694752094
 30
0.0
 10
9.463498159641066
 20
55.2100766485929
 30
0.0
 10
9.46349911492995
 20
55.17562085700922
 30
0.0
  0
SPLINE
  5
174
330
1F
100
AcDbEntity
  8
0
  6
Continuous
 62
     7
370
    15
100
AcDbSpline
210
0.0
220
0.0
230
1.0
 70
     8
 71
     3
 72
     8
 73
     4
 74
     0
 42
0.000000001
 43
0.00000001
 40
0.0
 40
0.0
 40
0.0
 40
0.0
 40
1.0
 40
1.0
 40
1.0
 40
1.0
 10
9.222641174335095
 20
55.14488920068128
 30
0.0
 10
9.251735116870073
 20
55.09664390492564
 30
0.0
 10
9.280764543386447
 20
55.04839859380062
 30
0.0
 10
9.309728821807497
 20
55.00015327815688
 30
0.0
  0
SPLINE
  5
176
330
1F
100
AcDbEntity
  8
0
  6
Continuous
 62
     7
370
    15
100
AcDbSpline
210
0.0
220
0.0
230
1.0
 70
     8
 71
     3
 72
     8
 73
     4
 74
     0
 42
0.000000001
 43
0.00000001
 40
0.7360458512840105
 40
0.7360458512840105
 40
0.7360458512840105
 40
0.7360458512840105
 40
0.994035780500315
 40
0.994035780500315
 40
0.994035780500315
 40
0.994035780500315
 10
9.337947439993485
 20
55.00015856132467
 30
0.0
 10
9.359411957277162
 20
55.00015799289759
 30
0.0
 10
9.380840777330409
 20
55.00015741872289
 30
0.0
 10
9.40223363694125
 20
55.00015683875048
 30
0.0
  0
SPLINE
  5
177
330
1F
100
AcDbEntity
  8
0
  6
Continuous
 62
     7
370
    15
100
AcDbSpline
210
0.0
220
0.0
230
1.0
 70
     8
 71
     3
 72
     8
 73
     4
 74
     0
 42
0.000000001
 43
0.00000001
 40
0.0
 40
0.0
 40
0.0
 40
0.0
 40
1.0
 40
1.0
 40
1.0
 40
1.0
 10
9.250587491697779
 20
55.14489443138115
 30
0.0
 10
9.279772402104998
 20
55.0966491518059
 30
0.0
 10
9.308892602255488
 20
55.04840386182197
 30
0.0
 10
9.33794743999348
 20
55.00015856132467
 30
0.0
  0
SPLINE
  5
178
330
1F
100
AcDbEntity
  8
0
  6
Continuous
 62
     7
370
    15
100
AcDbSpline
210
0.0
220
0.0
230
1.0
 70
     8
 71
     3
 72
     8
 73
     4
 74
     0
 42
0.000000001
 43
0.00000001
 40
0.2122484079959326
 40
0.2122484079959326
 40
0.2122484079959326
 40
0.2122484079959326
 40
0.3868475806923621
 40
0.3868475806923621
 40
0.3868475806923621
 40
0.3868475806923621
 10
9.20676439269675
 20
55.1448955464936
 30
0.0
 10
9.22138822467116
 20
55.14489517745336
 30
0.0
 10
9.235995951535541
 20
55.14489480582585
 30
0.0
 10
9.250587491697774
 20
55.14489443159643
 30
0.0
  0
SPLINE
  5
17A
330
1F
100
AcDbEntity
  8
0
  6
Continuous
 62
     7
370
    15
100
AcDbSpline
210
0.0
220
0.0
230
1.0
 70
     8
 71
     3
 72
     8
 73
     4
 74
     0
 42
0.000000001
 43
0.00000001
 40
0.0
 40
0.0
 40
0.0
 40
0.0
 40
0.212248408170628
 40
0.212248408170628
 40
0.212248408170628
 40
0.212248408170628
 10
9.1533669175175
 20
55.00016328763102
 30
0.0
 10
9.171191595717463
 20
55.00016284663223
 30
0.0
 10
9.188992621016947
 20
55.0001624018398
 30
0.0
 10
9.206769846850797
 20
55.00016195322588
 30
0.0
  0
SPLINE
  5
17C
330
1F
100
AcDbEntity
  8
0
  6
Continuous
 62
     7
370
    15
100
AcDbSpline
210
0.0
220
0.0
230
1.0
 70
     8
 71
     3
 72
     8
 73
     4
 74
     0
 42
0.000000001
 43
0.00000001
 40
0.0
 40
0.0
 40
0.0
 40
0.0
 40
0.5927181943348512
 40
0.5927181943348512
 40
0.5927181943348512
 40
0.5927181943348512
 10
9.302126941445163
 20
55.3459119250439
 30
0.0
 10
9.252722561056002
 20
55.34591321636584
 30
0.0
 10
9.203130532138115
 20
55.34591447749282
 30
0.0
 10
9.153354046495648
 20
55.34591570902503
 30
0.0
  0
SPLINE
  5
17D
330
1F
100
AcDbEntity
  8
0
  6
Continuous
 62
     7
370
    15
100
AcDbSpline
210
0.0
220
0.0
230
1.0
 70
     8
 71
     3
 72
    18
 73
    14
 74
     0
 42
0.000000001
 43
0.00000001
 40
0.0
 40
0.0
 40
0.0
 40
0.0
 40
0.1272247784771398
 40
0.2404750140731313
 40
0.3602527652649954
 40
0.5042993661581157
 40
0.6280286300409255
 40
0.7424352784426379
 40
0.861410280599297
 40
0.9269270403911924
 40
0.9623419244232708
 40
0.9808657198290068
 40
1.0
 40
1.0
 40
1.0
 40
1.0
 10
9.312360346401027
 20
55.14954090175961
 30
0.0
 10
9.322305688551818
 20
55.15245600178908
 30
0.0
 10
9.341103962931236
 20
55.15796600329215
 30
0.0
 10
9.363465851246021
 20
55.18185670340669
 30
0.0
 10
9.37526416644912
 20
55.21612548028409
 30
0.0
 10
9.377718181831572
 20
55.25366609015414
 30
0.0
 10
9.373358234379287
 20
55.29059869188013
 30
0.0
 10
9.358762423005327
 20
55.32109856810574
 30
0.0
 10
9.338862763230185
 20
55.33858114026224
 30
0.0
 10
9.321898071496236
 20
55.34431777892468
 30
0.0
 10
9.312455541537979
 20
55.3457139640704
 30
0.0
 10
9.306644679738431
 20
55.34594903237399
 30
0.0
 10
9.303649041895275
 20
55.34592442540398
 30
0.0
 10
9.302126941445264
 20
55.34591192246408
 30
0.0
  0
SPLINE
  5
17E
330
1F
100
AcDbEntity
  8
0
  6
Continuous
 62
     7
370
    15
100
AcDbSpline
210
0.0
220
0.0
230
1.0
 70
     8
 71
     3
 72
     8
 73
     4
 74
     0
 42
0.000000001
 43
0.00000001
 40
0.0
 40
0.0
 40
0.0
 40
0.0
 40
1.0
 40
1.0
 40
1.0
 40
1.0
 10
9.40223363694125
 20
55.00015683875048
 30
0.0
 10
9.372345775838626
 20
55.04995153768366
 30
0.0
 10
9.34238777338291
 20
55.09974622530456
 30
0.0
 10
9.312360346401027
 20
55.14954090175961
 30
0.0
  0
SPLINE
  5
182
330
1F
100
AcDbEntity
  8
0
  6
Continuous
 62
     7
370
    15
100
AcDbSpline
210
0.0
220
0.0
230
1.0
 70
     8
 71
     3
 72
     9
 73
     5
 74
     0
 42
0.000000001
 43
0.00000001
 40
0.0
 40
0.0
 40
0.0
 40
0.0
 40
0.7309924572305811
 40
1.0
 40
1.0
 40
1.0
 40
1.0
 10
9.294703783874676
 20
55.20623423395021
 30
0.0
 10
9.318514419870128
 20
55.2133007457879
 30
0.0
 10
9.342991215643856
 20
55.27118498018535
 30
0.0
 10
9.307915019088412
 20
55.2906871532528
 30
0.0
 10
9.299197675549358
 20
55.29349246177406
 30
0.0
  0
SPLINE
  5
187
330
1F
100
AcDbEntity
  8
0
  6
Continuous
 62
     7
370
    15
100
AcDbSpline
210
0.0
220
0.0
230
1.0
 70
     8
 71
     3
 72
     8
 73
     4
 74
     0
 42
0.000000001
 43
0.00000001
 40
0.0
 40
0.0
 40
0.0
 40
0.0
 40
0.7554713652888575
 40
0.7554713652888575
 40
0.7554713652888575
 40
0.7554713652888575
 10
9.271099702200353
 20
55.29348720283478
 30
0.0
 10
9.240454941704748
 20
55.29348802393086
 30
0.0
 10
9.209737798794936
 20
55.29348883338692
 30
0.0
 10
9.178949041832993
 20
55.29348963133251
 30
0.0
  0
SPLINE
  5
189
330
1F
100
AcDbEntity
  8
0
  6
Continuous
 62
     7
370
    15
100
AcDbSpline
210
0.0
220
0.0
230
1.0
 70
     8
 71
     3
 72
    13
 73
     9
 74
     0
 42
0.000000001
 43
0.00000001
 40
0.0
 40
0.0
 40
0.0
 40
0.0
 40
0.1634197360916945
 40
0.3170246471830485
 40
0.4859126317391149
 40
0.7082850921436268
 40
0.8413717324694183
 40
1.0
 40
1.0
 40
1.0
 40
1.0
 10
9.26661987417743
 20
55.20622897674276
 30
0.0
 10
9.271961212577546
 20
55.20839400131672
 30
0.0
 10
9.282323093965191
 20
55.21259402126599
 30
0.0
 10
9.293819519733285
 20
55.22794910952599
 30
0.0
 10
9.300910307057006
 20
55.24885181239658
 30
0.0
 10
9.299098940557665
 20
55.27257556650045
 30
0.0
 10
9.285708887334804
 20
55.28761905082813
 30
0.0
 10
9.27624562170037
 20
55.29142021231947
 30
0.0
 10
9.271099702200393
 20
55.29348720185523
 30
0.0
  0
LINE
  5
1BA
330
1F
100
AcDbEntity
  8
0
  6
Continuous
 62
     7
370
    15
100
AcDbLine
 10
-68.2154938851
 20
-106.8573032049
 30
0.0
 11
68.7845061149
 21
-106.8573032049
 31
0.0
  0
LINE
  5
1BB
330
1F
100
AcDbEntity
  8
0
  6
Continuous
 62
     7
370
    15
100
AcDbLine
 10
23.0571726193
 20
50.1477748447
 30
0.0
 11
-22.4881603895
 21
50.1477748447
 31
0.0
  0
LINE
  5
1BC
330
1F
100
AcDbEntity
  8
0
  6
Continuous
 62
     7
370
    15
100
AcDbLine
 10
15.2845061149
 20
50.1477748447
 30
0.0
 11
15.2845061149
 21
59.2475392745
 31
0.0
  0
LINE
  5
1BD
330
1F
100
AcDbEntity
  8
0
  6
Continuous
 62
     7
370
    15
100
AcDbLine
 10
-14.7154938851
 20
59.2475392745
 30
0.0
 11
-14.7154938851
 21
50.1477748447
 31
0.0
  0
LINE
  5
1BE
330
1F
100
AcDbEntity
  8
0
  6
Continuous
 62
     7
370
    15
100
AcDbLine
 10
8.3044945129
 20
52.2934097822
 30
0.0
 11
8.4059366597
 21
52.2934286962
 31
0.0
  0
LINE
  5
1BF
330
1F
100
AcDbEntity
  8
0
  6
Continuous
 62
     7
370
    15
100
AcDbLine
 10
12.7845061149
 20
60.9475392745
 30
0.0
 11
12.7845061149
 21
61.0377184472
 31
0.0
  0
LINE
  5
1C0
330
1F
100
AcDbEntity
  8
0
  6
Continuous
 62
     7
370
    15
100
AcDbLine
 10
-12.2154938851
 20
61.0377184472
 30
0.0
 11
-12.2154938851
 21
60.9475392745
 31
0.0
  0
LINE
  5
1C1
330
1F
100
AcDbEntity
  8
0
  6
Continuous
 62
     7
370
    15
100
AcDbLine
 10
-7.2154938851
 20
1294.6475392745
 30
0.0
 11
-5.7154938851
 21
1286.1475392745
 31
0.0
  0
LINE
  5
1C2
330
1F
100
AcDbEntity
  8
0
  6
Continuous
 62
     7
370
    15
100
AcDbLine
 10
6.2845061149
 20
1286.1475392745
 30
0.0
 11
7.7845061149
 21
1294.6475392745
 31
0.0
  0
LINE
  5
1C3
330
1F
100
AcDbEntity
  8
0
  6
Continuous
 62
     7
370
    15
100
AcDbLine
 10
-7.2154938851
 20
1302.6475392745
 30
0.0
 11
-7.2154938851
 21
1294.6475392745
 31
0.0
  0
LINE
  5
1C4
330
1F
100
AcDbEntity
  8
0
  6
Continuous
 62
     7
370
    15
100
AcDbLine
 10
7.7845061149
 20
1294.6475392745
 30
0.0
 11
7.7845061149
 21
1302.6475392745
 31
0.0
  0
LINE
  5
1C5
330
1F
100
AcDbEntity
  8
0
  6
Continuous
 62
     7
370
    15
100
AcDbLine
 10
7.7845061149
 20
77.6475392745
 30
0.0
 11
6.2845061149
 21
86.1475392745
 31
0.0
  0
LINE
  5
1C6
330
1F
100
AcDbEntity
  8
0
  6
Continuous
 62
     7
370
    15
100
AcDbLine
 10
-5.7154938851
 20
86.1475392745
 30
0.0
 11
-7.2154938851
 21
77.6475392745
 31
0.0
  0
LINE
  5
1C7
330
1F
100
AcDbEntity
  8
0
  6
Continuous
 62
     7
370
    15
100
AcDbLine
 10
7.7845061149
 20
69.6475392745
 30
0.0
 11
7.7845061149
 21
77.6475392745
 31
0.0
  0
LINE
  5
1C8
330
1F
100
AcDbEntity
  8
0
  6
Continuous
 62
     7
370
    15
100
AcDbLine
 10
-7.2154938851
 20
77.6475392745
 30
0.0
 11
-7.2154938851
 21
69.6475392745
 31
0.0
  0
LINE
  5
1C9
330
1F
100
AcDbEntity
  8
0
  6
Continuous
 62
     7
370
    15
100
AcDbLine
 10
52.2922821833
 20
1353.0594182494
 30
0.0
 11
50.8155047287
 21
1353.5124174686
 31
0.0
  0
LINE
  5
1CA
330
1F
100
AcDbEntity
  8
0
  6
Continuous
 62
     7
370
    15
100
AcDbLine
 10
48.5109572835
 20
1345.8514156164
 30
0.0
 11
49.9461906869
 21
1345.4111599712
 31
0.0
  0
LINE
  5
1CB
330
1F
100
AcDbEntity
  8
0
  6
Continuous
 62
     7
370
    15
100
AcDbLine
 10
-48.7895078735
 20
1345.6582216447
 30
0.0
 11
-47.9618916104
 21
1345.9120916641
 31
0.0
  0
LINE
  5
1CC
330
1F
100
AcDbEntity
  8
0
  6
Continuous
 62
     7
370
    15
100
AcDbLine
 10
-49.6588219153
 20
1353.7594791421
 30
0.0
 11
-51.1355993699
 21
1353.3064799229
 31
0.0
  0
LINE
  5
1CD
330
1F
100
AcDbEntity
  8
0
  6
Continuous
 62
     7
370
    15
100
AcDbLine
 10
50.0377753977
 20
1351.6590051865
 30
0.0
 11
49.8965963817
 21
1351.7023116331
 31
0.0
  0
LINE
  5
1CE
330
1F
100
AcDbEntity
  8
0
  6
Continuous
 62
     7
370
    15
100
AcDbLine
 10
68.7845061149
 20
-102.8573032049
 30
0.0
 11
-68.2154938851
 21
-102.8573032049
 31
0.0
  0
LINE
  5
1CF
330
1F
100
AcDbEntity
  8
0
  6
Continuous
 62
     7
370
    15
100
AcDbLine
 10
-29.5770340457
 20
1324.6384245012
 30
0.0
 11
30.1460462755
 21
1324.6384245012
 31
0.0
  0
LINE
  5
1D0
330
1F
100
AcDbEntity
  8
0
  6
Continuous
 62
     7
370
    15
100
AcDbLine
 10
-49.7154938851
 20
1357.6475392745
 30
0.0
 11
50.2845061149
 21
1357.6475392745
 31
0.0
  0
LINE
  5
1D1
330
1F
100
AcDbEntity
  8
0
  6
Continuous
 62
     7
370
    15
100
AcDbLine
 10
-28.3261720161
 20
1322.7825163562
 30
0.0
 11
28.8951842459
 21
1322.7825163562
 31
0.0
  0
LINE
  5
1D2
330
1F
100
AcDbEntity
  8
0
  6
Continuous
 62
     7
370
    15
100
AcDbLine
 10
4.8161425127
 20
53.845297672
 30
0.0
 11
4.8161253333
 21
55.4647596834
 31
0.0
  0
LINE
  5
1D3
330
1F
100
AcDbEntity
  8
0
  6
Continuous
 62
     7
370
    15
100
AcDbLine
 10
0.8436701703
 20
55.4575616393
 30
0.0
 11
0.8436693947
 21
53.8452951585
 31
0.0
  0
LINE
  5
1D4
330
1F
100
AcDbEntity
  8
0
  6
Continuous
 62
     7
370
    15
100
AcDbLine
 10
0.8436693946
 20
53.8452951585
 30
0.0
 11
1.1363064204
 21
53.8452960985
 31
0.0
  0
LINE
  5
1D5
330
1F
100
AcDbEntity
  8
0
  6
Continuous
 62
     7
370
    15
100
AcDbLine
 10
1.1336607149
 20
54.4961092793
 30
0.0
 11
1.8544920518
 21
54.4961113807
 31
0.0
  0
LINE
  5
1D6
330
1F
100
AcDbEntity
  8
0
  6
Continuous
 62
     7
370
    15
100
AcDbLine
 10
-0.7193334684
 20
54.5386357681
 30
0.0
 11
-0.719334388
 21
54.1293322503
 31
0.0
  0
LINE
  5
1D7
330
1F
100
AcDbEntity
  8
0
  6
Continuous
 62
     7
370
    15
100
AcDbLine
 10
-0.1012479012
 20
54.8277336201
 30
0.0
 11
-0.1012484755
 21
54.5386359345
 31
0.0
  0
LINE
  5
1D8
330
1F
100
AcDbEntity
  8
0
  6
Continuous
 62
     7
370
    15
100
AcDbLine
 10
-0.7193324672
 20
55.1626470824
 30
0.0
 11
-0.7193332195
 21
54.8277334536
 31
0.0
  0
LINE
  5
1D9
330
1F
100
AcDbEntity
  8
0
  6
Continuous
 62
     7
370
    15
100
AcDbLine
 10
-1.394194861
 20
54.119020218
 30
0.0
 11
-1.394195467
 21
53.8452944517
 31
0.0
  0
LINE
  5
1DA
330
1F
100
AcDbEntity
  8
0
  6
Continuous
 62
     7
370
    15
100
AcDbLine
 10
-2.4520982554
 20
55.4575638544
 30
0.0
 11
-2.4520994895
 21
54.1190231406
 31
0.0
  0
LINE
  5
1DB
330
1F
100
AcDbEntity
  8
0
  6
Continuous
 62
     7
370
    15
100
AcDbLine
 10
-6.2916561046
 20
54.9784116713
 30
0.0
 11
-6.2916465206
 21
53.8598995209
 31
0.0
  0
LINE
  5
1DC
330
1F
100
AcDbEntity
  8
0
  6
Continuous
 62
     7
370
    15
100
AcDbLine
 10
-5.1994482435
 20
55.4575898983
 30
0.0
 11
-5.1994411468
 21
53.8598782304
 31
0.0
  0
LINE
  5
1DD
330
1F
100
AcDbEntity
  8
0
  6
Continuous
 62
     7
370
    15
100
AcDbLine
 10
-3.2079024888
 20
54.1954147815
 30
0.0
 11
-3.2079025534
 21
54.7968154805
 31
0.0
  0
LINE
  5
1DE
330
1F
100
AcDbEntity
  8
0
  6
Continuous
 62
     7
370
    15
100
AcDbLine
 10
-3.2079025534
 20
54.7968159586
 30
0.0
 11
-4.0268023028
 21
54.7968222953
 31
0.0
  0
LINE
  5
1DF
330
1F
100
AcDbEntity
  8
0
  6
Continuous
 62
     7
370
    15
100
AcDbLine
 10
7.3923241238
 20
53.8452801096
 30
0.0
 11
7.3922842721
 21
55.4647421176
 31
0.0
  0
LINE
  5
1E0
330
1F
100
AcDbEntity
  8
0
  6
Continuous
 62
     7
370
    15
100
AcDbLine
 10
0.3323477356
 20
55.4575609806
 30
0.0
 11
0.3322077509
 21
55.4575609551
 31
0.0
  0
LINE
  5
1E1
330
1F
100
AcDbEntity
  8
0
  6
Continuous
 62
     7
370
    15
100
AcDbLine
 10
-1.0108184051
 20
55.4575597776
 30
0.0
 11
-1.0067704958
 21
55.4575605145
 31
0.0
  0
LINE
  5
1E2
330
1F
100
AcDbEntity
  8
0
  6
Continuous
 62
     7
370
    15
100
AcDbLine
 10
0.37297896
 20
54.1293329131
 30
0.0
 11
0.3727130468
 21
54.1293328645
 31
0.0
  0
LINE
  5
1E3
330
1F
100
AcDbEntity
  8
0
  6
Continuous
 62
     7
370
    15
100
AcDbLine
 10
-0.7224840447
 20
54.1293316765
 30
0.0
 11
-0.719334388
 21
54.1293322503
 31
0.0
  0
LINE
  5
1E4
330
1F
100
AcDbEntity
  8
0
  6
Continuous
 62
     7
370
    15
100
AcDbLine
 10
-0.1024641528
 20
54.8277333982
 30
0.0
 11
-0.1012480673
 21
54.8277336201
 31
0.0
  0
LINE
  5
1E5
330
1F
100
AcDbEntity
  8
0
  6
Continuous
 62
     7
370
    15
100
AcDbLine
 10
-0.7224824757
 20
54.8277328799
 30
0.0
 11
-0.7193332195
 21
54.8277334536
 31
0.0
  0
LINE
  5
1E6
330
1F
100
AcDbEntity
  8
0
  6
Continuous
 62
     7
370
    15
100
AcDbLine
 10
-0.1024641528
 20
54.8277333982
 30
0.0
 11
-0.102464727
 21
54.5386357126
 31
0.0
  0
LINE
  5
1E7
330
1F
100
AcDbEntity
  8
0
  6
Continuous
 62
     7
370
    15
100
AcDbLine
 10
-0.102464727
 20
54.5386357126
 30
0.0
 11
-0.1012484755
 21
54.5386359345
 31
0.0
  0
LINE
  5
1E8
330
1F
100
AcDbEntity
  8
0
  6
Continuous
 62
     7
370
    15
100
AcDbLine
 10
-0.7224817233
 20
55.1626465087
 30
0.0
 11
-0.7224824757
 21
54.8277328799
 31
0.0
  0
LINE
  5
1E9
330
1F
100
AcDbEntity
  8
0
  6
Continuous
 62
     7
370
    15
100
AcDbLine
 10
-0.7224831251
 20
54.5386351943
 30
0.0
 11
-0.7224840447
 21
54.1293316765
 31
0.0
  0
LINE
  5
1EA
330
1F
100
AcDbEntity
  8
0
  6
Continuous
 62
     7
370
    15
100
AcDbLine
 10
-1.0108220701
 20
53.8452932967
 30
0.0
 11
-1.0108184051
 21
55.4575597776
 31
0.0
  0
LINE
  5
1EB
330
1F
100
AcDbEntity
  8
0
  6
Continuous
 62
     7
370
    15
100
AcDbLine
 10
0.37297896
 20
54.1293329131
 30
0.0
 11
0.3729785055
 21
53.8452945696
 31
0.0
  0
LINE
  5
1EC
330
1F
100
AcDbEntity
  8
0
  6
Continuous
 62
     7
370
    15
100
AcDbLine
 10
0.3323477356
 20
55.4575609806
 30
0.0
 11
0.3323472522
 21
55.1626476752
 31
0.0
  0
LINE
  5
1ED
330
1F
100
AcDbEntity
  8
0
  6
Continuous
 62
     7
370
    15
100
AcDbLine
 10
0.8454098463
 20
55.4575619575
 30
0.0
 11
0.8436701704
 21
55.4575616393
 31
0.0
  0
LINE
  5
1EE
330
1F
100
AcDbEntity
  8
0
  6
Continuous
 62
     7
370
    15
100
AcDbLine
 10
0.8454098463
 20
55.4575619575
 30
0.0
 11
0.8454081445
 21
53.8452954765
 31
0.0
  0
LINE
  5
1EF
330
1F
100
AcDbEntity
  8
0
  6
Continuous
 62
     7
370
    15
100
AcDbLine
 10
1.1363070184
 20
54.7787100246
 30
0.0
 11
1.1363072727
 21
55.1756781314
 31
0.0
  0
LINE
  5
1F0
330
1F
100
AcDbEntity
  8
0
  6
Continuous
 62
     7
370
    15
100
AcDbLine
 10
1.1363064204
 20
53.8452960985
 30
0.0
 11
1.1363068374
 21
54.4961097636
 31
0.0
  0
LINE
  5
1F1
330
1F
100
AcDbEntity
  8
0
  6
Continuous
 62
     7
370
    15
100
AcDbLine
 10
1.8006249496
 20
55.1756796271
 30
0.0
 11
1.795907141
 21
55.1756787621
 31
0.0
  0
LINE
  5
1F2
330
1F
100
AcDbEntity
  8
0
  6
Continuous
 62
     7
370
    15
100
AcDbLine
 10
-1.3994554237
 20
54.1190192612
 30
0.0
 11
-1.3941950175
 21
54.119020218
 31
0.0
  0
LINE
  5
1F3
330
1F
100
AcDbEntity
  8
0
  6
Continuous
 62
     7
370
    15
100
AcDbLine
 10
-2.4606686731
 20
54.1190215863
 30
0.0
 11
-2.4520994892
 21
54.1190231406
 31
0.0
  0
LINE
  5
1F4
330
1F
100
AcDbEntity
  8
0
  6
Continuous
 62
     7
370
    15
100
AcDbLine
 10
1.8544914312
 20
55.4575641965
 30
0.0
 11
1.8496055089
 21
55.4575633005
 31
0.0
  0
LINE
  5
1F5
330
1F
100
AcDbEntity
  8
0
  6
Continuous
 62
     7
370
    15
100
AcDbLine
 10
-1.3994554237
 20
54.1190192612
 30
0.0
 11
-1.3994560297
 21
53.8452934949
 31
0.0
  0
LINE
  5
1F6
330
1F
100
AcDbEntity
  8
0
  6
Continuous
 62
     7
370
    15
100
AcDbLine
 10
-1.3994560297
 20
53.8452934949
 30
0.0
 11
-1.394195467
 21
53.8452944517
 31
0.0
  0
LINE
  5
1F7
330
1F
100
AcDbEntity
  8
0
  6
Continuous
 62
     7
370
    15
100
AcDbLine
 10
-2.4606666815
 20
55.4575623003
 30
0.0
 11
-2.4606686731
 21
54.1190215863
 31
0.0
  0
LINE
  5
1F8
330
1F
100
AcDbEntity
  8
0
  6
Continuous
 62
     7
370
    15
100
AcDbLine
 10
-2.7528588336
 20
53.8452970097
 30
0.0
 11
-2.752856994
 21
55.4575634898
 31
0.0
  0
LINE
  5
1F9
330
1F
100
AcDbEntity
  8
0
  6
Continuous
 62
     7
370
    15
100
AcDbLine
 10
14.5845061149
 20
59.9475392745
 30
0.0
 11
-14.0154938851
 21
59.9475392745
 31
0.0
  0
LINE
  5
1FA
330
1F
100
AcDbEntity
  8
0
  6
Continuous
 62
     7
370
    15
100
AcDbLine
 10
2.6139031431
 20
54.6575282604
 30
0.0
 11
2.6066498872
 21
54.6575269278
 31
0.0
  0
LINE
  5
1FB
330
1F
100
AcDbEntity
  8
0
  6
Continuous
 62
     7
370
    15
100
AcDbLine
 10
-2.4606666815
 20
55.4575623003
 30
0.0
 11
-2.4520982555
 21
55.4575638544
 31
0.0
  0
LINE
  5
1FC
330
1F
100
AcDbEntity
  8
0
  6
Continuous
 62
     7
370
    15
100
AcDbLine
 10
-2.752856994
 20
55.4575634898
 30
0.0
 11
-2.7433775414
 21
55.4575652078
 31
0.0
  0
LINE
  5
1FD
330
1F
100
AcDbEntity
  8
0
  6
Continuous
 62
     7
370
    15
100
AcDbLine
 10
-3.2188355319
 20
54.1954128025
 30
0.0
 11
-3.2079024888
 21
54.1954147815
 31
0.0
  0
LINE
  5
1FE
330
1F
100
AcDbEntity
  8
0
  6
Continuous
 62
     7
370
    15
100
AcDbLine
 10
-3.2188355319
 20
54.1954128025
 30
0.0
 11
-3.2188352591
 21
54.7968135015
 31
0.0
  0
LINE
  5
1FF
330
1F
100
AcDbEntity
  8
0
  6
Continuous
 62
     7
370
    15
100
AcDbLine
 10
-3.2188352591
 20
54.7968135015
 30
0.0
 11
-3.2079025534
 21
54.7968154805
 31
0.0
  0
LINE
  5
200
330
1F
100
AcDbEntity
  8
0
  6
Continuous
 62
     7
370
    15
100
AcDbLine
 10
-4.0402962565
 20
54.796819858
 30
0.0
 11
-4.0402959051
 21
54.4961195086
 31
0.0
  0
LINE
  5
201
330
1F
100
AcDbEntity
  8
0
  6
Continuous
 62
     7
370
    15
100
AcDbLine
 10
-3.4859292463
 20
54.4961149234
 30
0.0
 11
-3.4859292451
 21
54.4159753592
 31
0.0
  0
LINE
  5
202
330
1F
100
AcDbEntity
  8
0
  6
Continuous
 62
     7
370
    15
100
AcDbLine
 10
-3.2711729593
 20
55.2321578116
 30
0.0
 11
-3.2600773123
 21
55.2321598198
 31
0.0
  0
LINE
  5
203
330
1F
100
AcDbEntity
  8
0
  6
Continuous
 62
     7
370
    15
100
AcDbLine
 10
-4.0402962565
 20
54.796819858
 30
0.0
 11
-4.0268023028
 21
54.7968222953
 31
0.0
  0
LINE
  5
204
330
1F
100
AcDbEntity
  8
0
  6
Continuous
 62
     7
370
    15
100
AcDbLine
 10
-3.4685294987
 20
55.007678803
 30
0.0
 11
-3.4568183845
 21
55.0076809215
 31
0.0
  0
LINE
  5
205
330
1F
100
AcDbEntity
  8
0
  6
Continuous
 62
     7
370
    15
100
AcDbLine
 10
4.8302896047
 20
55.4647623008
 30
0.0
 11
4.8161253327
 21
55.4647596834
 31
0.0
  0
LINE
  5
206
330
1F
100
AcDbEntity
  8
0
  6
Continuous
 62
     7
370
    15
100
AcDbLine
 10
4.8303058922
 20
53.8453002893
 30
0.0
 11
4.8302896047
 21
55.4647623008
 31
0.0
  0
LINE
  5
207
330
1F
100
AcDbEntity
  8
0
  6
Continuous
 62
     7
370
    15
100
AcDbLine
 10
4.8303058922
 20
53.8453002893
 30
0.0
 11
4.8161425129
 21
53.845297672
 31
0.0
  0
LINE
  5
208
330
1F
100
AcDbEntity
  8
0
  6
Continuous
 62
     7
370
    15
100
AcDbLine
 10
5.0896280043
 20
53.8452997595
 30
0.0
 11
5.0746560757
 21
53.8452969909
 31
0.0
  0
LINE
  5
209
330
1F
100
AcDbEntity
  8
0
  6
Continuous
 62
     7
370
    15
100
AcDbLine
 10
5.0896098593
 20
55.4647617708
 30
0.0
 11
5.0896280043
 21
53.8452997595
 31
0.0
  0
LINE
  5
20A
330
1F
100
AcDbEntity
  8
0
  6
Continuous
 62
     7
370
    15
100
AcDbLine
 10
5.4684111808
 20
54.1607476194
 30
0.0
 11
5.4522580466
 21
54.1607446293
 31
0.0
  0
LINE
  5
20B
330
1F
100
AcDbEntity
  8
0
  6
Continuous
 62
     7
370
    15
100
AcDbLine
 10
6.7972371325
 20
55.007668323
 30
0.0
 11
6.7769403036
 21
55.0076645521
 31
0.0
  0
LINE
  5
20C
330
1F
100
AcDbEntity
  8
0
  6
Continuous
 62
     7
370
    15
100
AcDbLine
 10
5.6633734246
 20
54.3770792923
 30
0.0
 11
5.646612284
 21
54.377076188
 31
0.0
  0
LINE
  5
20D
330
1F
100
AcDbEntity
  8
0
  6
Continuous
 62
     7
370
    15
100
AcDbLine
 10
-5.2166103421
 20
55.4575868086
 30
0.0
 11
-5.1994491062
 21
55.4575898983
 31
0.0
  0
LINE
  5
20E
330
1F
100
AcDbEntity
  8
0
  6
Continuous
 62
     7
370
    15
100
AcDbLine
 10
-5.4739054858
 20
55.4575909767
 30
0.0
 11
-5.4559420254
 21
55.4575942084
 31
0.0
  0
LINE
  5
20F
330
1F
100
AcDbEntity
  8
0
  6
Continuous
 62
     7
370
    15
100
AcDbLine
 10
-5.2166032444
 20
53.8598751406
 30
0.0
 11
-5.1994411461
 21
53.8598782304
 31
0.0
  0
LINE
  5
210
330
1F
100
AcDbEntity
  8
0
  6
Continuous
 62
     7
370
    15
100
AcDbLine
 10
-5.2166103421
 20
55.4575868086
 30
0.0
 11
-5.2166032444
 21
53.8598751406
 31
0.0
  0
LINE
  5
211
330
1F
100
AcDbEntity
  8
0
  6
Continuous
 62
     7
370
    15
100
AcDbLine
 10
-6.5749498784
 20
53.8599020258
 30
0.0
 11
-6.5749654134
 21
55.4576136919
 31
0.0
  0
LINE
  5
212
330
1F
100
AcDbEntity
  8
0
  6
Continuous
 62
     7
370
    15
100
AcDbLine
 10
-5.4738995413
 20
54.3390788253
 30
0.0
 11
-5.4739054858
 21
55.4575909767
 31
0.0
  0
LINE
  5
213
330
1F
100
AcDbEntity
  8
0
  6
Continuous
 62
     7
370
    15
100
AcDbLine
 10
-6.3122342523
 20
54.9784079783
 30
0.0
 11
-6.3122246679
 21
53.8598958277
 31
0.0
  0
LINE
  5
214
330
1F
100
AcDbEntity
  8
0
  6
Continuous
 62
     7
370
    15
100
AcDbLine
 10
-6.3122383584
 20
55.4576074942
 30
0.0
 11
-6.2916610476
 21
55.4576111872
 31
0.0
  0
LINE
  5
215
330
1F
100
AcDbEntity
  8
0
  6
Continuous
 62
     7
370
    15
100
AcDbLine
 10
-6.5749654134
 20
55.4576136919
 30
0.0
 11
-6.5535689424
 21
55.4576175289
 31
0.0
  0
LINE
  5
216
330
1F
100
AcDbEntity
  8
0
  6
Continuous
 62
     7
370
    15
100
AcDbLine
 10
-6.3122246679
 20
53.8598958277
 30
0.0
 11
-6.2916465202
 21
53.8598995209
 31
0.0
  0
LINE
  5
217
330
1F
100
AcDbEntity
  8
0
  6
Continuous
 62
     7
370
    15
100
AcDbLine
 10
7.4145449975
 20
53.8452842453
 30
0.0
 11
7.3923241241
 21
53.8452801096
 31
0.0
  0
LINE
  5
218
330
1F
100
AcDbEntity
  8
0
  6
Continuous
 62
     7
370
    15
100
AcDbLine
 10
8.6419357337
 20
53.845264642
 30
0.0
 11
8.615887928
 21
53.8452597761
 31
0.0
  0
LINE
  5
219
330
1F
100
AcDbEntity
  8
0
  6
Continuous
 62
     7
370
    15
100
AcDbLine
 10
7.4145059783
 20
55.4647462534
 30
0.0
 11
7.3922842712
 21
55.4647421176
 31
0.0
  0
LINE
  5
21A
330
1F
100
AcDbEntity
  8
0
  6
Continuous
 62
     7
370
    15
100
AcDbLine
 10
7.4145449975
 20
53.8452842453
 30
0.0
 11
7.4145059783
 21
55.4647462534
 31
0.0
  0
LINE
  5
21B
330
1F
100
AcDbEntity
  8
0
  6
Continuous
 62
     7
370
    15
100
AcDbLine
 10
8.602837081
 20
55.4647274368
 30
0.0
 11
8.6028465348
 21
55.1756474573
 31
0.0
  0
LINE
  5
21C
330
1F
100
AcDbEntity
  8
0
  6
Continuous
 62
     7
370
    15
100
AcDbLine
 10
7.6759969538
 20
55.175662923
 30
0.0
 11
7.6760064585
 21
54.8081308617
 31
0.0
  0
LINE
  5
21D
330
1F
100
AcDbEntity
  8
0
  6
Continuous
 62
     7
370
    15
100
AcDbLine
 10
8.2193370312
 20
54.8081225258
 30
0.0
 11
8.2193450513
 21
54.538614418
 31
0.0
  0
LINE
  5
21E
330
1F
100
AcDbEntity
  8
0
  6
Continuous
 62
     7
370
    15
100
AcDbLine
 10
7.6760134282
 20
54.5386227538
 30
0.0
 11
7.6760243263
 21
54.1171959803
 31
0.0
  0
LINE
  5
21F
330
1F
100
AcDbEntity
  8
0
  6
Continuous
 62
     7
370
    15
100
AcDbLine
 10
8.6419267577
 20
54.1171797268
 30
0.0
 11
8.6419357337
 21
53.845264642
 31
0.0
  0
LINE
  5
220
330
1F
100
AcDbEntity
  8
0
  6
Continuous
 62
     7
370
    15
100
AcDbLine
 10
-6.8722943991
 20
53.8599096912
 30
0.0
 11
-6.8499700054
 21
53.859913691
 31
0.0
  0
LINE
  5
221
330
1F
100
AcDbEntity
  8
0
  6
Continuous
 62
     7
370
    15
100
AcDbLine
 10
-7.5837363346
 20
55.4576427784
 30
0.0
 11
-7.559194605
 21
55.4576471658
 31
0.0
  0
LINE
  5
222
330
1F
100
AcDbEntity
  8
0
  6
Continuous
 62
     7
370
    15
100
AcDbLine
 10
8.2193450513
 20
54.538614418
 30
0.0
 11
8.1946144483
 21
54.5386098041
 31
0.0
  0
LINE
  5
223
330
1F
100
AcDbEntity
  8
0
  6
Continuous
 62
     7
370
    15
100
AcDbLine
 10
8.6028465348
 20
55.1756474573
 30
0.0
 11
8.5769198176
 21
55.1756426146
 31
0.0
  0
LINE
  5
224
330
1F
100
AcDbEntity
  8
0
  6
Continuous
 62
     7
370
    15
100
AcDbLine
 10
-7.9067215314
 20
54.5621415455
 30
0.0
 11
-7.8811722741
 21
54.5621461083
 31
0.0
  0
LINE
  5
225
330
1F
100
AcDbEntity
  8
0
  6
Continuous
 62
     7
370
    15
100
AcDbLine
 10
-7.8038858316
 20
55.4576503734
 30
0.0
 11
-7.7786576956
 21
55.4576548804
 31
0.0
  0
LINE
  5
226
330
1F
100
AcDbEntity
  8
0
  6
Continuous
 62
     7
370
    15
100
AcDbLine
 10
-8.2206815621
 20
53.8599544773
 30
0.0
 11
-8.1941530239
 21
53.8599592102
 31
0.0
  0
LINE
  5
227
330
1F
100
AcDbEntity
  8
0
  6
Continuous
 62
     7
370
    15
100
AcDbLine
 10
8.9973920945
 20
55.1756389097
 30
0.0
 11
8.9702352052
 21
55.1756338309
 31
0.0
  0
LINE
  5
228
330
1F
100
AcDbEntity
  8
0
  6
Continuous
 62
     7
370
    15
100
AcDbLine
 10
9.4921987859
 20
55.175626233
 30
0.0
 11
9.4634991149
 21
55.175620857
 31
0.0
  0
LINE
  5
229
330
1F
100
AcDbEntity
  8
0
  6
Continuous
 62
     7
370
    15
100
AcDbLine
 10
12.7845061149
 20
61.0377184472
 30
0.0
 11
-12.2154938851
 21
61.0377184472
 31
0.0
  0
LINE
  5
22A
330
1F
100
AcDbEntity
  8
0
  6
Continuous
 62
     7
370
    15
100
AcDbLine
 10
9.1257238112
 20
55.000158115
 30
0.0
 11
9.178960236
 21
55.0001567485
 31
0.0
  0
LINE
  5
22B
330
1F
100
AcDbEntity
  8
0
  6
Continuous
 62
     7
370
    15
100
AcDbLine
 10
9.1789547127
 20
55.1448903419
 30
0.0
 11
9.2226411743
 21
55.1448892007
 31
0.0
  0
LINE
  5
22C
330
1F
100
AcDbEntity
  8
0
  6
Continuous
 62
     7
370
    15
100
AcDbLine
 10
9.3097288218
 20
55.0001532782
 30
0.0
 11
9.3738145771
 21
55.0001515169
 31
0.0
  0
LINE
  5
22D
330
1F
100
AcDbEntity
  8
0
  6
Continuous
 62
     7
370
    15
100
AcDbLine
 10
9.2067698498
 20
55.0001619529
 30
0.0
 11
9.2067643957
 21
55.1448955463
 31
0.0
  0
LINE
  5
22E
330
1F
100
AcDbEntity
  8
0
  6
Continuous
 62
     7
370
    15
100
AcDbLine
 10
9.1533540465
 20
55.3459157065
 30
0.0
 11
9.1533669176
 21
55.0001632873
 31
0.0
  0
LINE
  5
22F
330
1F
100
AcDbEntity
  8
0
  6
Continuous
 62
     7
370
    15
100
AcDbLine
 10
9.2991976755
 20
55.2934924618
 30
0.0
 11
9.2067587958
 21
55.2934948348
 31
0.0
  0
LINE
  5
230
330
1F
100
AcDbEntity
  8
0
  6
Continuous
 62
     7
370
    15
100
AcDbLine
 10
9.2067587958
 20
55.2934948348
 30
0.0
 11
9.2067620841
 21
55.2062364896
 31
0.0
  0
LINE
  5
231
330
1F
100
AcDbEntity
  8
0
  6
Continuous
 62
     7
370
    15
100
AcDbLine
 10
9.2067620841
 20
55.2062364896
 30
0.0
 11
9.2947037839
 21
55.2062341739
 31
0.0
  0
LINE
  5
232
330
1F
100
AcDbEntity
  8
0
  6
Continuous
 62
     7
370
    15
100
AcDbLine
 10
9.1533669175
 20
55.0001632873
 30
0.0
 11
9.1257238112
 21
55.000158115
 31
0.0
  0
LINE
  5
233
330
1F
100
AcDbEntity
  8
0
  6
Continuous
 62
     7
370
    15
100
AcDbLine
 10
9.1533540465
 20
55.3459157065
 30
0.0
 11
9.1257107746
 21
55.3459105341
 31
0.0
  0
LINE
  5
234
330
1F
100
AcDbEntity
  8
0
  6
Continuous
 62
     7
370
    15
100
AcDbLine
 10
9.2505874954
 20
55.1448944314
 30
0.0
 11
9.2226411743
 21
55.1448892007
 31
0.0
  0
LINE
  5
235
330
1F
100
AcDbEntity
  8
0
  6
Continuous
 62
     7
370
    15
100
AcDbLine
 10
9.2991976755
 20
55.2934924618
 30
0.0
 11
9.2710997019
 21
55.2934872019
 31
0.0
  0
LINE
  5
236
330
1F
100
AcDbEntity
  8
0
  6
Continuous
 62
     7
370
    15
100
AcDbLine
 10
9.3379474405
 20
55.0001585613
 30
0.0
 11
9.3097288218
 21
55.0001532782
 31
0.0
  0
LINE
  5
237
330
1F
100
AcDbEntity
  8
0
  6
Continuous
 62
     7
370
    15
100
AcDbLine
 10
9.4022336368
 20
55.0001568388
 30
0.0
 11
9.3738145771
 21
55.0001515169
 31
0.0
  0
LINE
  5
238
330
1F
100
AcDbEntity
  8
0
  6
Continuous
 62
     7
370
    15
100
AcDbLine
 10
-5.7154938851
 20
1286.1475392745
 30
0.0
 11
6.2845061149
 21
1286.1475392745
 31
0.0
  0
LINE
  5
239
330
1F
100
AcDbEntity
  8
0
  6
Continuous
 62
     7
370
    15
100
AcDbLine
 10
-7.2154938851
 20
1294.6475392745
 30
0.0
 11
7.7845061149
 21
1294.6475392745
 31
0.0
  0
LINE
  5
23A
330
1F
100
AcDbEntity
  8
0
  6
Continuous
 62
     7
370
    15
100
AcDbLine
 10
-7.2154938851
 20
1302.6475392745
 30
0.0
 11
7.7845061149
 21
1302.6475392745
 31
0.0
  0
LINE
  5
23B
330
1F
100
AcDbEntity
  8
0
  6
Continuous
 62
     7
370
    15
100
AcDbLine
 10
6.2845061149
 20
86.1475392745
 30
0.0
 11
-5.7154938851
 21
86.1475392745
 31
0.0
  0
LINE
  5
23C
330
1F
100
AcDbEntity
  8
0
  6
Continuous
 62
     7
370
    15
100
AcDbLine
 10
7.7845061149
 20
77.6475392745
 30
0.0
 11
-7.2154938851
 21
77.6475392745
 31
0.0
  0
LINE
  5
23D
330
1F
100
AcDbEntity
  8
0
  6
Continuous
 62
     7
370
    15
100
AcDbLine
 10
7.7845061149
 20
69.6475392745
 30
0.0
 11
-7.2154938851
 21
69.6475392745
 31
0.0
  0
LINE
  5
23E
330
1F
100
AcDbEntity
  8
0
  6
Continuous
 62
     7
370
    15
100
AcDbLine
 10
50.8155047287
 20
1353.5124174686
 30
0.0
 11
48.6991351648
 21
1346.6130526901
 31
0.0
  0
LINE
  5
23F
330
1F
100
AcDbEntity
  8
0
  6
Continuous
 62
     7
370
    15
100
AcDbLine
 10
52.403877502
 20
1348.3884762454
 30
0.0
 11
52.2634851551
 21
1347.9307971943
 31
0.0
  0
LINE
  5
240
330
1F
100
AcDbEntity
  8
0
  6
Continuous
 62
     7
370
    15
100
AcDbLine
 10
52.7981431973
 20
1349.6737824121
 30
0.0
 11
52.6577508504
 21
1349.216103361
 31
0.0
  0
LINE
  5
241
330
1F
100
AcDbEntity
  8
0
  6
Continuous
 62
     7
370
    15
100
AcDbLine
 10
-49.4954619167
 20
1353.2269255467
 30
0.0
 11
-49.6588219153
 21
1353.7594791421
 31
0.0
  0
LINE
  5
242
330
1F
100
AcDbEntity
  8
0
  6
Continuous
 62
     7
370
    15
100
AcDbLine
 10
-51.6585827329
 20
1349.9766629433
 30
0.0
 11
-51.5846994156
 21
1349.7358033289
 31
0.0
  0
LINE
  5
243
330
1F
100
AcDbEntity
  8
0
  6
Continuous
 62
     7
370
    15
100
AcDbLine
 10
-51.2924910367
 20
1348.7832040138
 30
0.0
 11
-51.1661919006
 21
1348.37146883
 31
0.0
  0
LINE
  5
244
330
1F
100
AcDbEntity
  8
0
  6
Continuous
 62
     7
370
    15
100
AcDbLine
 10
-51.0896799927
 20
1348.1220400102
 30
0.0
 11
-51.16356331
 21
1348.3628996246
 31
0.0
  0
LINE
  5
245
330
1F
100
AcDbEntity
  8
0
  6
Continuous
 62
     7
370
    15
100
AcDbLine
 10
-51.4557716889
 20
1349.3154989397
 30
0.0
 11
-51.582070825
 21
1349.7272341235
 31
0.0
  0
LINE
  5
246
330
1F
100
AcDbEntity
  8
0
  6
Continuous
 62
     7
370
    15
100
AcDbLine
 10
-51.2924910367
 20
1348.7832040138
 30
0.0
 11
-51.1137252641
 21
1348.8340242362
 31
0.0
  0
LINE
  5
247
330
1F
100
AcDbEntity
  8
0
  6
Continuous
 62
     8
370
    15
100
AcDbLine
 10
42.8769994936
 20
-45.010673161
 30
0.0
 11
-42.3079872639
 21
-45.010673161
 31
0.0
  0
LINE
  5
248
330
1F
100
AcDbEntity
  8
0
  6
Continuous
 62
     8
370
    15
100
AcDbLine
 10
40.4461207589
 20
-39.022221735
 30
0.0
 11
-39.8771085291
 21
-39.022221735
 31
0.0
  0
LINE
  5
249
330
1F
100
AcDbEntity
  8
0
  6
Continuous
 62
     8
370
    15
100
AcDbLine
 10
26.6531685421
 20
47.4614069817
 30
0.0
 11
-26.0841563124
 21
47.4614069817
 31
0.0
  0
LINE
  5
24A
330
1F
100
AcDbEntity
  8
0
  6
Continuous
 62
     8
370
    15
100
AcDbLine
 10
15.2845061149
 20
59.2475392745
 30
0.0
 11
-14.7154938851
 21
59.2475392745
 31
0.0
  0
LINE
  5
24B
330
1F
100
AcDbEntity
  8
0
  6
Continuous
 62
     8
370
    15
100
AcDbLine
 10
12.7845061149
 20
60.9475392745
 30
0.0
 11
-12.2154938851
 21
60.9475392745
 31
0.0
  0
LINE
  5
24C
330
1F
100
AcDbEntity
  8
0
  6
Continuous
 62
     8
370
    15
100
AcDbLine
 10
52.2922821833
 20
1353.0594182494
 30
0.0
 11
49.9461906869
 21
1345.4111599712
 31
0.0
  0
LINE
  5
24D
330
1F
100
AcDbEntity
  8
0
  6
Continuous
 62
     8
370
    15
100
AcDbLine
 10
52.5264659141
 20
1352.8342617715
 30
0.0
 11
50.266346826
 21
1345.4662735442
 31
0.0
  0
LINE
  5
24E
330
1F
100
AcDbEntity
  8
0
  6
Continuous
 62
     8
370
    15
100
AcDbLine
 10
-48.7895078735
 20
1345.6582216447
 30
0.0
 11
-51.1355993699
 21
1353.3064799229
 31
0.0
  0
LINE
  5
24F
330
1F
100
AcDbEntity
  8
0
  6
Continuous
 62
     8
370
    15
100
AcDbLine
 10
-49.1096640126
 20
1345.7133352177
 30
0.0
 11
-51.3697831007
 21
1353.0813234451
 31
0.0
  0
LINE
  5
250
330
1F
100
AcDbEntity
  8
0
  6
Continuous
 62
     8
370
    15
100
AcDbLine
 10
49.6247945662
 20
1350.312687676
 30
0.0
 11
50.0377753977
 21
1351.6590051865
 31
0.0
  0
ARC
  5
251
330
1F
100
AcDbEntity
  8
0
  6
Continuous
 62
     7
370
    15
100
AcDbCircle
 10
68.7845061149
 20
-104.8573032049
 30
0.0
 40
2.000000000000028
100
AcDbArc
 50
270.0
 51
90.0
  0
ARC
  5
252
330
1F
100
AcDbEntity
  8
0
  6
Continuous
 62
     7
370
    15
100
AcDbCircle
 10
-68.2154938851
 20
-104.8573032049
 30
0.0
 40
2.000000000000028
100
AcDbArc
 50
90.0
 51
270.0
  0
ARC
  5
253
330
1F
100
AcDbEntity
  8
0
  6
Continuous
 62
     7
370
    15
100
AcDbCircle
 10
26.9177166304
 20
-108.5362819778
 30
0.0
 40
93.9558463066923
100
AcDbArc
 50
137.4586642148
 51
176.5347556573
  0
ARC
  5
254
330
1F
100
AcDbEntity
  8
0
  6
Continuous
 62
     7
370
    15
100
AcDbCircle
 10
-26.3487044007
 20
-108.5362819778
 30
0.0
 40
93.9558463066924
100
AcDbArc
 50
3.4652443427
 51
42.5413357852
  0
ARC
  5
255
330
1F
100
AcDbEntity
  8
0
  6
Continuous
 62
     7
370
    15
100
AcDbCircle
 10
-13.5940005864
 20
1357.0371512221
 30
0.0
 40
36.12665015884752
100
AcDbArc
 50
197.8069721084
 51
243.7418217393
  0
ARC
  5
256
330
1F
100
AcDbEntity
  8
0
  6
Continuous
 62
     7
370
    15
100
AcDbCircle
 10
-13.5940005864
 20
1357.0371512221
 30
0.0
 40
36.12665015885227
100
AcDbArc
 50
179.0318968613
 51
186.0554181239
  0
ARC
  5
257
330
1F
100
AcDbEntity
  8
0
  6
Continuous
 62
     7
370
    15
100
AcDbCircle
 10
14.1630128162
 20
1357.0371512221
 30
0.0
 40
36.12665015885214
100
AcDbArc
 50
351.4630361053
 51
0.9681031387
  0
ARC
  5
258
330
1F
100
AcDbEntity
  8
0
  6
Continuous
 62
     7
370
    15
100
AcDbCircle
 10
14.1630128162
 20
1357.0371512221
 30
0.0
 40
36.12665015884679
100
AcDbArc
 50
296.2581782607
 51
342.0328052518
  0
ARC
  5
259
330
1F
100
AcDbEntity
  8
0
  6
Continuous
 62
     7
370
    15
100
AcDbCircle
 10
49.6923046204
 20
-38.7565452418
 30
0.0
 40
9.249999999999742
100
AcDbArc
 50
181.6458632914
 51
222.5413357852
  0
ARC
  5
25A
330
1F
100
AcDbEntity
  8
0
  6
Continuous
 62
     7
370
    15
100
AcDbCircle
 10
-49.1232923906
 20
-38.7565452418
 30
0.0
 40
9.24999999999946
100
AcDbArc
 50
317.4586642148
 51
358.3541367086
  0
ARC
  5
25B
330
1F
100
AcDbEntity
  8
0
  6
Continuous
 62
     7
370
    15
100
AcDbCircle
 10
299.2495567652
 20
-48.7665643222
 30
0.0
 40
339.2666316130544
100
AcDbArc
 50
163.5227126283
 51
178.3541367086
  0
ARC
  5
25C
330
1F
100
AcDbEntity
  8
0
  6
Continuous
 62
     7
370
    15
100
AcDbCircle
 10
-298.6805445354
 20
-48.7665643222
 30
0.0
 40
339.2666316130554
100
AcDbArc
 50
1.6458632914
 51
16.4772873717
  0
ARC
  5
25D
330
1F
100
AcDbEntity
  8
0
  6
Continuous
 62
     7
370
    15
100
AcDbCircle
 10
-30.3261714462
 20
1322.7840261742
 30
0.0
 40
2.000000000000283
100
AcDbArc
 50
359.9567468962
 51
68.0023416074
  0
ARC
  5
25E
330
1F
100
AcDbEntity
  8
0
  6
Continuous
 62
     7
370
    15
100
AcDbCircle
 10
30.895183676
 20
1322.7840261742
 30
0.0
 40
2.000000000000408
100
AcDbArc
 50
111.9976583926
 51
180.0432531038
  0
ARC
  5
25F
330
1F
100
AcDbEntity
  8
0
  6
Continuous
 62
     7
370
    15
100
AcDbCircle
 10
-0.1709256683
 20
1331.4209017291
 30
0.0
 40
29.45062985331599
100
AcDbArc
 50
197.0566752071
 51
257.6886343053
  0
ARC
  5
260
330
1F
100
AcDbEntity
  8
0
  6
Continuous
 62
     7
370
    15
100
AcDbCircle
 10
0.7399378981
 20
1331.4209017291
 30
0.0
 40
29.45062985331564
100
AcDbArc
 50
282.3113656947
 51
342.9433247929
  0
ARC
  5
261
330
1F
100
AcDbEntity
  8
0
  6
Continuous
 62
     7
370
    15
100
AcDbCircle
 10
23.0571726193
 20
46.3977748447
 30
0.0
 40
3.750000000000185
100
AcDbArc
 50
16.4772873717
 51
90.0
  0
ARC
  5
262
330
1F
100
AcDbEntity
  8
0
  6
Continuous
 62
     7
370
    15
100
AcDbCircle
 10
-22.4881603895
 20
46.3977748447
 30
0.0
 40
3.750000000000178
100
AcDbArc
 50
90.0
 51
163.5227126283
  0
ARC
  5
263
330
1F
100
AcDbEntity
  8
0
  6
Continuous
 62
     7
370
    15
100
AcDbCircle
 10
14.5845061149
 20
59.2475392745
 30
0.0
 40
0.6999999999999744
100
AcDbArc
 50
360.0
 51
90.0
  0
ARC
  5
264
330
1F
100
AcDbEntity
  8
0
  6
Continuous
 62
     7
370
    15
100
AcDbCircle
 10
-14.0154938851
 20
59.2475392745
 30
0.0
 40
0.6999999999999673
100
AcDbArc
 50
90.0
 51
180.0
  0
ARC
  5
265
330
1F
100
AcDbEntity
  8
0
  6
Continuous
 62
     7
370
    15
100
AcDbCircle
 10
13.7845061149
 20
60.9475392745
 30
0.0
 40
0.9999999999999698
100
AcDbArc
 50
180.0
 51
270.0
  0
ARC
  5
266
330
1F
100
AcDbEntity
  8
0
  6
Continuous
 62
     7
370
    15
100
AcDbCircle
 10
-13.2154938851
 20
60.9475392745
 30
0.0
 40
1.000000000000021
100
AcDbArc
 50
270.0
 51
0.0
  0
ARC
  5
267
330
1F
100
AcDbEntity
  8
0
  6
Continuous
 62
     7
370
    15
100
AcDbCircle
 10
2.8011477166
 20
60.4610425497
 30
0.0
 40
10.00000000000027
100
AcDbArc
 50
3.3059435837
 51
66.7294648351
  0
ARC
  5
268
330
1F
100
AcDbEntity
  8
0
  6
Continuous
 62
     7
370
    15
100
AcDbCircle
 10
-2.2321354868
 20
60.4610425497
 30
0.0
 40
10.00000000000018
100
AcDbArc
 50
113.2705351649
 51
176.6940564163
  0
ARC
  5
269
330
1F
100
AcDbEntity
  8
0
  6
Continuous
 62
     7
370
    15
100
AcDbCircle
 10
52.186708066
 20
1352.7152466269
 30
0.0
 40
0.3600000000011057
100
AcDbArc
 50
19.3050528406
 51
72.9466852312
  0
ARC
  5
26A
330
1F
100
AcDbEntity
  8
0
  6
Continuous
 62
     7
370
    15
100
AcDbCircle
 10
50.0517648043
 20
1345.7553315937
 30
0.0
 40
0.3599999999992521
100
AcDbArc
 50
252.9466852313
 51
306.5883176221
  0
ARC
  5
26B
330
1F
100
AcDbEntity
  8
0
  6
Continuous
 62
     7
370
    15
100
AcDbCircle
 10
46.3919492123
 20
1350.6853772155
 30
0.0
 40
6.499999999996229
100
AcDbArc
 50
306.588317622
 51
325.0161806761
  0
ARC
  5
26C
330
1F
100
AcDbEntity
  8
0
  6
Continuous
 62
     7
370
    15
100
AcDbCircle
 10
46.3919492123
 20
1350.6853772155
 30
0.0
 40
6.499999999995587
100
AcDbArc
 50
0.8771897865
 51
19.3050528406
  0
ARC
  5
26D
330
1F
100
AcDbEntity
  8
0
  6
Continuous
 62
     7
370
    15
100
AcDbCircle
 10
-48.8950819909
 20
1346.0023932672
 30
0.0
 40
0.3599999999988944
100
AcDbArc
 50
233.4116823779
 51
287.0533147688
  0
ARC
  5
26E
330
1F
100
AcDbEntity
  8
0
  6
Continuous
 62
     7
370
    15
100
AcDbCircle
 10
-51.0300252526
 20
1352.9623083004
 30
0.0
 40
0.3599999999986334
100
AcDbArc
 50
107.0533147686
 51
160.6949471595
  0
ARC
  5
26F
330
1F
100
AcDbEntity
  8
0
  6
Continuous
 62
     7
370
    15
100
AcDbCircle
 10
-45.2352663989
 20
1350.932438889
 30
0.0
 40
6.499999999996403
100
AcDbArc
 50
215.2809452122
 51
233.411682378
  0
ARC
  5
270
330
1F
100
AcDbEntity
  8
0
  6
Continuous
 62
     7
370
    15
100
AcDbCircle
 10
-45.2352663989
 20
1350.932438889
 30
0.0
 40
6.500000000002099
100
AcDbArc
 50
160.6949471594
 51
178.8256843252
  0
ARC
  5
271
330
1F
100
AcDbEntity
  8
0
  6
Continuous
 62
     7
370
    15
100
AcDbCircle
 10
50.0964276851
 20
1351.8502116434
 30
0.0
 40
0.2000000000003262
100
AcDbArc
 50
252.9466852314
 51
342.9466852314
  0
ARC
  5
272
330
1F
100
AcDbEntity
  8
0
  6
Continuous
 62
     7
370
    15
100
AcDbCircle
 10
46.4547114479
 20
1350.7163643626
 30
0.0
 40
6.428693012251462
100
AcDbArc
 50
325.0393156763
 51
335.2166677913
  0
ARC
  5
273
330
1F
100
AcDbEntity
  8
0
  6
Continuous
 62
     7
370
    15
100
AcDbCircle
 10
51.6346577779
 20
1347.0023855069
 30
0.0
 40
0.0936770088354318
100
AcDbArc
 50
332.1573951796
 51
18.8371728118
  0
ARC
  5
274
330
1F
100
AcDbEntity
  8
0
  6
Continuous
 62
     7
370
    15
100
AcDbCircle
 10
46.4268782278
 20
1350.6256280651
 30
0.0
 40
6.428693012259367
100
AcDbArc
 50
325.0393156763
 51
335.2166677913
  0
ARC
  5
275
330
1F
100
AcDbEntity
  8
0
  6
Continuous
 62
     7
370
    15
100
AcDbCircle
 10
45.4449285665
 20
1350.7838021872
 30
0.0
 40
7.120913654083727
100
AcDbArc
 50
341.7298165752
 51
344.4243359792
  0
ARC
  5
276
330
1F
100
AcDbEntity
  8
0
  6
Continuous
 62
     7
370
    15
100
AcDbCircle
 10
52.4397227527
 20
1350.1267026819
 30
0.0
 40
0.9363372119519066
100
AcDbArc
 50
266.6910715284
 51
283.4650458932
  0
ARC
  5
277
330
1F
100
AcDbEntity
  8
0
  6
Continuous
 62
     7
370
    15
100
AcDbCircle
 10
52.8392110198
 20
1350.7827865282
 30
0.0
 40
0.0515952324858424
100
AcDbArc
 50
327.9463958935
 51
33.2639011167
  0
ARC
  5
278
330
1F
100
AcDbEntity
  8
0
  6
Continuous
 62
     7
370
    15
100
AcDbCircle
 10
46.4543737066
 20
1350.715263326
 30
0.0
 40
6.428693012234455
100
AcDbArc
 50
350.6767026713
 51
0.8540547863
  0
ARC
  5
279
330
1F
100
AcDbEntity
  8
0
  6
Continuous
 62
     7
370
    15
100
AcDbCircle
 10
52.0135206981
 20
1348.7372839837
 30
0.0
 40
0.9363372119609173
100
AcDbArc
 50
42.4283245695
 51
59.2022989342
  0
ARC
  5
27A
330
1F
100
AcDbEntity
  8
0
  6
Continuous
 62
     7
370
    15
100
AcDbCircle
 10
45.5559818188
 20
1351.1330855749
 30
0.0
 40
7.117175478330688
100
AcDbArc
 50
338.8148111196
 51
347.078559343
  0
ARC
  5
27B
330
1F
100
AcDbEntity
  8
0
  6
Continuous
 62
     7
370
    15
100
AcDbCircle
 10
51.7127464961
 20
1347.7567600852
 30
0.0
 40
0.9363372119615886
100
AcDbArc
 50
42.4283245695
 51
59.2022989342
  0
ARC
  5
27C
330
1F
100
AcDbEntity
  8
0
  6
Continuous
 62
     7
370
    15
100
AcDbCircle
 10
-45.5635317004
 20
1350.690609688
 30
0.0
 40
6.095154278019298
100
AcDbArc
 50
178.6495151148
 51
189.0940761507
  0
ARC
  5
27D
330
1F
100
AcDbEntity
  8
0
  6
Continuous
 62
     7
370
    15
100
AcDbCircle
 10
-51.2646888404
 20
1351.091049701
 30
0.0
 40
0.468873756824345
100
AcDbArc
 50
180.8993247584
 51
213.207304779
  0
ARC
  5
27E
330
1F
100
AcDbEntity
  8
0
  6
Continuous
 62
     7
370
    15
100
AcDbCircle
 10
-45.6400436083
 20
1350.9400385078
 30
0.0
 40
6.095154278018757
100
AcDbArc
 50
178.6495151148
 51
189.0940761507
  0
ARC
  5
27F
330
1F
100
AcDbEntity
  8
0
  6
Continuous
 62
     7
370
    15
100
AcDbCircle
 10
-50.3811211153
 20
1348.5718653321
 30
0.0
 40
0.9355528696742295
100
AcDbArc
 50
143.5390605687
 51
166.9443634408
  0
ARC
  5
280
330
1F
100
AcDbEntity
  8
0
  6
Continuous
 62
     7
370
    15
100
AcDbCircle
 10
-45.5661587194
 20
1350.6991737702
 30
0.0
 40
6.095154278027537
100
AcDbArc
 50
205.0125533867
 51
215.4571144226
  0
ARC
  5
281
330
1F
100
AcDbEntity
  8
0
  6
Continuous
 62
     7
370
    15
100
AcDbCircle
 10
-50.5274581076
 20
1349.048923927
 30
0.0
 40
0.9355528696722333
100
AcDbArc
 50
227.1622660965
 51
250.5675689687
  0
ARC
  5
282
330
1F
100
AcDbEntity
  8
0
  6
Continuous
 62
     7
370
    15
100
AcDbCircle
 10
-44.5798163919
 20
1350.6076887728
 30
0.0
 40
6.718062803949051
100
AcDbArc
 50
192.8004148807
 51
201.3062146567
  0
ARC
  5
283
330
1F
100
AcDbEntity
  8
0
  6
Continuous
 62
     7
370
    15
100
AcDbCircle
 10
-50.8196664865
 20
1350.0015232421
 30
0.0
 40
0.9355528696805736
100
AcDbArc
 50
227.1622660966
 51
250.5675689686
  0
SPLINE
  5
2A5
330
1B
100
AcDbEntity
 67
     1
  8
0
  6
Continuous
 62
     7
370
    15
100
AcDbSpline
210
0.0
220
0.0
230
1.0
 70
    24
 71
     3
 72
    51
 73
    47
 74
     0
 42
0.000000001
 43
0.00000001
 40
0.0
 40
0.0
 40
0.0
 40
0.0
 40
0.0052889184705316
 40
0.0155820692538905
 40
0.0248501712673105
 40
0.0330977365915511
 40
0.0403274437561392
 40
0.0452948823248068
 40
0.0496352902939977
 40
0.053581508474567
 40
0.0575517789338097
 40
0.061554605563342
 40
0.0798229699026356
 40
0.0984571095753518
 40
0.1317398471803047
 40
0.1650247176370295
 40
0.2046428146568371
 40
0.2442559601972414
 40
0.2838705283615181
 40
0.3369280861230007
 40
0.3899880597965065
 40
0.4430491063229131
 40
0.4961096205617925
 40
0.5411302414646478
 40
0.5861501063465564
 40
0.6311687846267461
 40
0.676185812164431
 40
0.7212018539719498
 40
0.7662207241552155
 40
0.8256492129732975
 40
0.885076907840721
 40
0.8937926823791502
 40
0.9025083629240681
 40
0.9110687513163824
 40
0.9192512127064407
 40
0.9270541113645049
 40
0.9346051518191059
 40
0.9393276176115498
 40
0.9448792974970893
 40
0.95126028885086
 40
0.9584707688023831
 40
0.9665110365859783
 40
0.9752158860628686
 40
0.984722315854793
 40
0.9950313696167024
 40
1.0
 40
1.0
 40
1.0
 40
1.0
 10
11.3674081459435
 20
86.14761213224709
 30
0.0
 10
11.3674081459435
 20
88.2579371830684
 30
0.0
 10
11.3674081459435
 20
94.47532005129233
 30
0.0
 10
11.3674081459435
 20
104.4078944401021
 30
0.0
 10
11.3674081459435
 20
115.5278954171257
 30
0.0
 10
11.3674081459435
 20
125.4279402803607
 30
0.0
 10
11.3674081459435
 20
133.6091048042751
 30
0.0
 10
11.3674081459435
 20
140.2274124280757
 30
0.0
 10
11.3674081459435
 20
145.5318392423558
 30
0.0
 10
11.3674081459435
 20
150.4371978273454
 30
0.0
 10
11.3674081459435
 20
155.2073665578501
 30
0.0
 10
11.3674081459435
 20
165.7089345939221
 30
0.0
 10
11.3674081459435
 20
182.0766522089771
 30
0.0
 10
11.3674081459435
 20
210.1473855710167
 30
0.0
 10
11.3674081459435
 20
244.2025935909929
 30
0.0
 10
11.3674081459435
 20
286.6321022256042
 30
0.0
 10
11.3674081459435
 20
331.6210198735431
 30
0.0
 10
11.3674081459435
 20
379.1797924763828
 30
0.0
 10
11.3674081459435
 20
432.1242146935789
 30
0.0
 10
11.36740814594351
 20
490.4418279594231
 30
0.0
 10
11.3674081459435
 20
554.1135066100909
 30
0.0
 10
11.3674081459435
 20
617.7654237604763
 30
0.0
 10
11.3674081459435
 20
678.1971128483148
 30
0.0
 10
11.3674081459435
 20
735.4214726968677
 30
0.0
 10
11.3674081459435
 20
789.4441250998872
 30
0.0
 10
11.3674081459435
 20
843.4824965848552
 30
0.0
 10
11.3674081459435
 20
897.5325907653265
 30
0.0
 10
11.3674081459435
 20
951.5825504236591
 30
0.0
 10
11.3674081459435
 20
1011.372015585095
 30
0.0
 10
11.3674081459435
 20
1076.894354771136
 30
0.0
 10
11.3674081459435
 20
1127.907412522577
 30
0.0
 10
11.3674081459435
 20
1158.652505979401
 30
0.0
 10
11.3674081459435
 20
1169.05063626374
 30
0.0
 10
11.3674081459435
 20
1179.236307511347
 30
0.0
 10
11.3674081459435
 20
1189.057582360313
 30
0.0
 10
11.36740814594351
 20
1198.47566653726
 30
0.0
 10
11.3674081459435
 20
1206.509716546414
 30
0.0
 10
11.3674081459435
 20
1213.643158629316
 30
0.0
 10
11.3674081459435
 20
1220.308538443374
 30
0.0
 10
11.36740814594349
 20
1227.969786758711
 30
0.0
 10
11.3674081459435
 20
1236.627085446173
 30
0.0
 10
11.3674081459435
 20
1246.214331576444
 30
0.0
 10
11.3674081459435
 20
1256.720070990986
 30
0.0
 10
11.36740814594349
 20
1268.132639361453
 30
0.0
 10
11.36740814594351
 20
1278.04929102955
 30
0.0
 10
11.3674081459435
 20
1284.16015118087
 30
0.0
 10
11.3674081459435
 20
1286.147533897213
 30
0.0
  0
SPLINE
  5
2A6
330
1B
100
AcDbEntity
 67
     1
  8
0
  6
Continuous
 62
     7
370
    15
100
AcDbSpline
210
0.0
220
0.0
230
1.0
 70
    24
 71
     3
 72
    53
 73
    49
 74
     0
 42
0.000000001
 43
0.00000001
 40
0.0
 40
0.0
 40
0.0
 40
0.0
 40
0.0051614856072494
 40
0.0154473806621483
 40
0.0247147757633084
 40
0.0329647899437963
 40
0.0401981424681009
 40
0.045168571777086
 40
0.0495117845903299
 40
0.0534596715879616
 40
0.0574313660369971
 40
0.0614354962973347
 40
0.0797071096518256
 40
0.098341152258158
 40
0.1316197164975677
 40
0.1648996041470475
 40
0.2045190293824027
 40
0.2441375930346316
 40
0.2837538583232837
 40
0.326197569754098
 40
0.3686424927611269
 40
0.411088767730131
 40
0.4535361080789537
 40
0.4959841163084154
 40
0.5410051914215157
 40
0.5860267616979234
 40
0.6310481370419254
 40
0.6760683808516001
 40
0.7210868574617041
 40
0.7661028735644629
 40
0.8057163036050395
 40
0.8453370947053749
 40
0.8849619361891566
 40
0.8936788655284427
 40
0.9023953054212928
 40
0.9109568309345171
 40
0.9191394791697645
 40
0.926941697741129
 40
0.9344898411201088
 40
0.939208248299939
 40
0.9447555801632258
 40
0.9511319875094271
 40
0.9583379042782664
 40
0.9663742418729466
 40
0.975077000900348
 40
0.9845850836619701
 40
0.9949027871314604
 40
1.0
 40
1.0
 40
1.0
 40
1.0
 10
5.367408145943498
 20
1286.147462336264
 30
0.0
 10
5.367408145943497
 20
1284.082936078434
 30
0.0
 10
5.367408145943497
 20
1277.90418728043
 30
0.0
 10
5.367408145943499
 20
1268.015243049259
 30
0.0
 10
5.367408145943498
 20
1256.889586286083
 30
0.0
 10
5.367408145943497
 20
1246.984474824191
 30
0.0
 10
5.367408145943497
 20
1238.798705107808
 30
0.0
 10
5.367408145943499
 20
1232.17639743544
 30
0.0
 10
5.367408145943496
 20
1226.868980288894
 30
0.0
 10
5.367408145943498
 20
1221.961305732771
 30
0.0
 10
5.367408145943498
 20
1217.189393016779
 30
0.0
 10
5.3674081459435
 20
1206.685256838105
 30
0.0
 10
5.3674081459435
 20
1190.31419982909
 30
0.0
 10
5.367408145943498
 20
1162.233004957315
 30
0.0
 10
5.367408145943499
 20
1128.155944356121
 30
0.0
 10
5.367408145943497
 20
1085.697312169886
 30
0.0
 10
5.367408145943497
 20
1040.709004543909
 30
0.0
 10
5.367408145943497
 20
993.1791186657392
 30
0.0
 10
5.367408145943497
 20
944.5001536849701
 30
0.0
 10
5.367408145943497
 20
894.6707020272447
 30
0.0
 10
5.367408145943498
 20
843.7094810366806
 30
0.0
 10
5.367408145943497
 20
792.7583752434954
 30
0.0
 10
5.367408145943497
 20
741.8212149042652
 30
0.0
 10
5.3674081459435
 20
689.8674675373222
 30
0.0
 10
5.367408145943497
 20
636.8920800694209
 30
0.0
 10
5.367408145943497
 20
582.887045876001
 30
0.0
 10
5.367408145943499
 20
528.8718121901558
 30
0.0
 10
5.367408145943497
 20
474.8402570592658
 30
0.0
 10
5.367408145943497
 20
420.7932520580028
 30
0.0
 10
5.367408145943497
 20
368.9034786447091
 30
0.0
 10
5.367408145943495
 20
319.1882263273282
 30
0.0
 10
5.367408145943498
 20
271.6770423082577
 30
0.0
 10
5.367408145943499
 20
236.5294804306164
 30
0.0
 10
5.367408145943495
 20
213.7201888287968
 30
0.0
 10
5.367408145943499
 20
203.3267125126553
 30
0.0
 10
5.367408145943497
 20
193.1447572454391
 30
0.0
 10
5.367408145943498
 20
183.326384219012
 30
0.0
 10
5.367408145943497
 20
173.9115741289106
 30
0.0
 10
5.367408145943497
 20
165.8813964728225
 30
0.0
 10
5.367408145943497
 20
158.7527754755324
 30
0.0
 10
5.367408145943497
 20
152.0926213250082
 30
0.0
 10
5.367408145943496
 20
144.4366652181066
 30
0.0
 10
5.3674081459435
 20
135.7846423767361
 30
0.0
 10
5.367408145943497
 20
126.2025671422765
 30
0.0
 10
5.367408145943499
 20
115.7015201960769
 30
0.0
 10
5.367408145943499
 20
104.2937327369976
 30
0.0
 10
5.367408145943497
 20
94.33219382592218
 30
0.0
 10
5.367408145943498
 20
88.18154402762634
 30
0.0
 10
5.367408145943497
 20
86.14772362832845
 30
0.0
  0
LWPOLYLINE
  5
2C2
330
1B
100
AcDbEntity
 67
     1
  8
0
  6
Continuous
 62
     7
370
    15
100
AcDbPolyline
 90
       21
 70
   128
 43
0.0
 10
4.1396575276
 20
1350.3304886047
 10
4.0204828468
 20
1349.183526342
 10
4.2778720173
 20
1348.0574926054
 10
4.8866299939
 20
1347.0626114229
 10
5.7871673043
 20
1346.2962686961
 10
6.8913330822
 20
1345.8334793907
 10
8.091043888
 20
1345.7195445483
 10
9.2688636692
 20
1345.965616905
 10
10.3094992193
 20
1346.5476091843
 10
11.1110858801
 20
1347.4085519267
 10
11.5951587643
 20
1348.4641700581
 10
11.7143334451
 20
1349.6111323208
 10
11.4569442746
 20
1350.7371660574
 10
10.848186298
 20
1351.73204724
 10
9.9476489876
 20
1352.4983899667
 10
8.8434832097
 20
1352.9611792721
 10
7.6437724039
 20
1353.0751141146
 10
6.4659526226
 20
1352.8290417578
 10
5.4253170725
 20
1352.2470494785
 10
4.6237304117
 20
1351.3861067361
 10
4.1396575276
 20
1350.3304886047
  0
SPLINE
  5
2C5
330
1B
100
AcDbEntity
 67
     1
  8
0
  6
Continuous
 62
     7
370
    15
100
AcDbSpline
210
0.0
220
0.0
230
1.0
 70
     8
 71
     3
 72
     8
 73
     4
 74
     0
 42
0.000000001
 43
0.00000001
 40
0.0
 40
0.0
 40
0.0
 40
0.0
 40
1.0
 40
1.0
 40
1.0
 40
1.0
 10
8.585429768264122
 20
1349.727234123455
 30
0.0
 10
8.569901714344171
 20
1349.891630545577
 30
0.0
 10
8.553982990342927
 20
1350.054566551074
 30
0.0
 10
8.537218470870195
 20
1350.214324637969
 30
0.0
  0
LWPOLYLINE
  5
2C9
330
1B
100
AcDbEntity
 67
     1
  8
0
  6
Continuous
 62
     7
370
    15
100
AcDbPolyline
 90
       22
 70
   128
 43
0.0
 10
3.9978580535
 20
1350.4510063947
 10
3.8711242236
 20
1349.3175500845
 10
4.0994777575
 20
1348.1987370396
 10
4.6626284418
 20
1347.1939787089
 10
5.5105378667
 20
1346.3925522795
 10
6.5678655588
 20
1345.8656680065
 10
7.7406633128
 20
1345.6601418698
 10
8.9247229014
 20
1345.7942357687
 10
10.0148354341
 20
1346.2560348716
 10
10.9141396283
 20
1347.0045063018
 10
11.54272836
 20
1347.9731450881
 10
11.8447487618
 20
1349.0758834235
 10
11.7933649956
 20
1350.2147381676
 10
11.3931427346
 20
1351.2885170786
 10
10.6796434829
 20
1352.2018101881
 10
9.7162647802
 20
1352.8734673954
 10
8.588607052
 20
1353.24380901
 10
7.396867636
 20
1353.2799285544
 10
6.2469378093
 20
1352.9786166485
 10
5.2409938834
 20
1352.3666461774
 10
4.4684183905
 20
1351.498393403
 10
3.9978580535
 20
1350.4510063947
  0
SPLINE
  5
2CB
330
1B
100
AcDbEntity
 67
     1
  8
0
  6
Continuous
 62
     7
370
    15
100
AcDbSpline
210
0.0
220
0.0
230
1.0
 70
     8
 71
     3
 72
     8
 73
     4
 74
     0
 42
0.000000001
 43
0.00000001
 40
0.0
 40
0.0
 40
0.0
 40
0.0
 40
1.0
 40
1.0
 40
1.0
 40
1.0
 10
6.897449828353608
 20
1348.783204013759
 30
0.0
 10
6.956753374514966
 20
1348.989451219746
 30
0.0
 10
7.017548937726185
 20
1349.195290932367
 30
0.0
 10
7.081574697782756
 20
1349.400232291078
 30
0.0
  0
SPLINE
  5
2CC
330
1B
100
AcDbEntity
 67
     1
  8
0
  6
Continuous
 62
     7
370
    15
100
AcDbSpline
210
0.0
220
0.0
230
1.0
 70
     8
 71
     3
 72
     8
 73
     4
 74
     0
 42
0.000000001
 43
0.00000001
 40
0.0
 40
0.0
 40
0.0
 40
0.0
 40
1.0
 40
1.0
 40
1.0
 40
1.0
 10
7.149386523622939
 20
1348.371468830041
 30
0.0
 10
7.16491457754289
 20
1348.649257461627
 30
0.0
 10
7.180833301544133
 20
1348.928438509527
 30
0.0
 10
7.197597821016864
 20
1349.210617983765
 30
0.0
  0
SPLINE
  5
2CE
330
1B
100
AcDbEntity
 67
     1
  8
0
  6
Continuous
 62
     7
370
    15
100
AcDbSpline
210
0.0
220
0.0
230
1.0
 70
     8
 71
     3
 72
     8
 73
     4
 74
     0
 42
0.000000001
 43
0.00000001
 40
0.0
 40
0.0
 40
0.0
 40
0.0
 40
1.0
 40
1.0
 40
1.0
 40
1.0
 10
8.145795672417211
 20
1348.122040010242
 30
0.0
 10
8.16132372633716
 20
1348.399828641828
 30
0.0
 10
8.177242450338406
 20
1348.679009689728
 30
0.0
 10
8.194006969811138
 20
1348.961189163966
 30
0.0
  0
SPLINE
  5
2D0
330
1B
100
AcDbEntity
 67
     1
  8
0
  6
Continuous
 62
     7
370
    15
100
AcDbSpline
210
0.0
220
0.0
230
1.0
 70
     8
 71
     3
 72
     8
 73
     4
 74
     0
 42
0.000000001
 43
0.00000001
 40
0.0
 40
0.0
 40
0.0
 40
0.0
 40
1.0
 40
1.0
 40
1.0
 40
1.0
 10
8.576466466984897
 20
1348.36289962464
 30
0.0
 10
8.517162920823539
 20
1348.598837472361
 30
0.0
 10
8.456367357612313
 20
1348.835114813137
 30
0.0
 10
8.392341597555744
 20
1349.072111015558
 30
0.0
  0
SPLINE
  5
2D3
330
1B
100
AcDbEntity
 67
     1
  8
0
  6
Continuous
 62
     7
370
    15
100
AcDbSpline
210
0.0
220
0.0
230
1.0
 70
     8
 71
     3
 72
    11
 73
     7
 74
     0
 42
0.000000001
 43
0.00000001
 40
0.0
 40
0.0
 40
0.0
 40
0.0
 40
0.1034418246935192
 40
0.4886318633125765
 40
0.8764352090070102
 40
1.0
 40
1.0
 40
1.0
 40
1.0
 10
5.292573971945618
 20
1352.861844152977
 30
0.0
 10
5.202843760992035
 20
1352.783091381176
 30
0.0
 10
4.778981940073997
 20
1352.411084083931
 30
0.0
 10
4.210009637915552
 20
1351.569349827111
 30
0.0
 10
3.845286479579912
 20
1350.567089574894
 30
0.0
 10
3.903102335922615
 20
1349.985587251805
 30
0.0
 10
3.917072710086607
 20
1349.845075538502
 30
0.0
  0
SPLINE
  5
2D4
330
1B
100
AcDbEntity
 67
     1
  8
0
  6
Continuous
 62
     7
370
    15
100
AcDbSpline
210
0.0
220
0.0
230
1.0
 70
     8
 71
     3
 72
    11
 73
     7
 74
     0
 42
0.000000001
 43
0.00000001
 40
0.0
 40
0.0
 40
0.0
 40
0.0
 40
0.1205230933893668
 40
0.4468038240038361
 40
0.7740419545282669
 40
1.0
 40
1.0
 40
1.0
 40
1.0
 10
11.81457423289765
 20
1349.821131634729
 30
0.0
 10
11.82840089047038
 20
1349.984546112345
 30
0.0
 10
11.87965914565579
 20
1350.59035709382
 30
0.0
 10
11.49325683335221
 20
1351.613710396787
 30
0.0
 10
10.79466355867339
 20
1352.616976580801
 30
0.0
 10
10.16201011392509
 20
1353.050037746585
 30
0.0
 10
9.903597019187298
 20
1353.226925546675
 30
0.0
  0
SPLINE
  5
2E0
330
1B
100
AcDbEntity
 67
     1
  8
0
  6
Continuous
 62
     7
370
    15
100
AcDbSpline
210
0.0
220
0.0
230
1.0
 70
    11
 71
     3
 72
    62
 73
    58
 74
     0
 42
0.000000001
 43
0.00000001
 40
0.0
 40
0.0
 40
0.0
 40
0.0
 40
0.0000399802083265
 40
0.0000399802083265
 40
0.0000399802083265
 40
0.0000780622317863
 40
0.0000780622317863
 40
0.0000780622317863
 40
0.0001178830952292
 40
0.0001178830952292
 40
0.0001178830952292
 40
0.0001593715661225
 40
0.0001593715661225
 40
0.0001593715661225
 40
0.0002017926293777
 40
0.0002017926293777
 40
0.0002017926293777
 40
0.0002438746125755
 40
0.0002438746125755
 40
0.0002438746125755
 40
0.0002844117823018
 40
0.0002844117823018
 40
0.0002844117823018
 40
0.0003229698414363
 40
0.0003229698414363
 40
0.0003229698414363
 40
0.0003600959267268
 40
0.0003600959267268
 40
0.0003600959267268
 40
0.0003969163884174
 40
0.0003969163884174
 40
0.0003969163884174
 40
0.0004345856801678
 40
0.0004345856801678
 40
0.0004345856801678
 40
0.0004738940431346
 40
0.0004738940431346
 40
0.0004738940431346
 40
0.0005150054720267
 40
0.0005150054720267
 40
0.0005150054720267
 40
0.0005573169729828
 40
0.0005573169729828
 40
0.0005573169729828
 40
0.0005996064915435
 40
0.0005996064915435
 40
0.0005996064915435
 40
0.00064059812882
 40
0.00064059812882
 40
0.00064059812882
 40
0.0006796727024442
 40
0.0006796727024442
 40
0.0006796727024442
 40
0.0007171567646212
 40
0.0007171567646212
 40
0.0007171567646212
 40
0.0007367890250369
 40
0.0007367890250369
 40
0.0007367890250369
 40
0.0007367890250369
 10
7.845568942638015
 20
1349.633623674064
 30
0.0
 10
7.832634865402363
 20
1349.636791425787
 30
0.0
 10
7.820106772622699
 20
1349.642342736236
 30
0.0
 10
7.809080255489286
 20
1349.649693116531
 30
0.0
 10
7.798553925307362
 20
1349.656710067487
 30
0.0
 10
7.789101936925155
 20
1349.665542395427
 30
0.0
 10
7.781380116854938
 20
1349.675458949814
 30
0.0
 10
7.773309386098066
 20
1349.685823584028
 30
0.0
 10
7.766914528124341
 20
1349.6976402177
 30
0.0
 10
7.762623850509003
 20
1349.709974741309
 30
0.0
 10
7.758156672040019
 20
1349.722816656556
 30
0.0
 10
7.755849918816359
 20
1349.73656436404
 30
0.0
 10
7.755872321538575
 20
1349.750123740608
 30
0.0
 10
7.755895209695234
 20
1349.763976929166
 30
0.0
 10
7.75835495625585
 20
1349.778021759637
 30
0.0
 10
7.763101896978298
 20
1349.791063065163
 30
0.0
 10
7.767808449540451
 20
1349.803993411996
 30
0.0
 10
7.774910097999256
 20
1349.816311182973
 30
0.0
 10
7.783870142201478
 20
1349.826860882203
 30
0.0
 10
7.79250234535505
 20
1349.837024576145
 30
0.0
 10
7.803122527901344
 20
1349.845841457483
 30
0.0
 10
7.81482901533789
 20
1349.852424819154
 30
0.0
 10
7.825972766110044
 20
1349.85869171536
 30
0.0
 10
7.838425823336447
 20
1349.863112566334
 30
0.0
 10
7.851095812745141
 20
1349.865247972459
 30
0.0
 10
7.863307328308587
 20
1349.86730610718
 30
0.0
 10
7.87605930194982
 20
1349.867301339483
 30
0.0
 10
7.888281065693625
 20
1349.865253237313
 30
0.0
 10
7.900410424330363
 20
1349.863220620232
 30
0.0
 10
7.912342426225294
 20
1349.859128220812
 30
0.0
 10
7.923157354607357
 20
1349.853363931308
 30
0.0
 10
7.934223350581861
 20
1349.84746582434
 30
0.0
 10
7.944411409949345
 20
1349.839670686534
 30
0.0
 10
7.953002586542052
 20
1349.830641792058
 30
0.0
 10
7.961964606556772
 20
1349.821223159799
 30
0.0
 10
7.96942585690244
 20
1349.810221316217
 30
0.0
 10
7.974886001306102
 20
1349.798513163105
 30
0.0
 10
7.980592666932081
 20
1349.786276396094
 30
0.0
 10
7.984266630737943
 20
1349.77294348774
 30
0.0
 10
7.985649216164431
 20
1349.759567335262
 30
0.0
 10
7.987070988989298
 20
1349.745812054952
 30
0.0
 10
7.986105082366302
 20
1349.731629355281
 30
0.0
 10
7.982790103734493
 20
1349.71820107575
 30
0.0
 10
7.979478875683153
 20
1349.70478798903
 30
0.0
 10
7.973719266144081
 20
1349.691741782732
 30
0.0
 10
7.965926059142071
 20
1349.680254036152
 30
0.0
 10
7.958372237122669
 20
1349.66911916022
 30
0.0
 10
7.948676382959742
 20
1349.659125330962
 30
0.0
 10
7.937641517922701
 20
1349.651257381358
 30
0.0
 10
7.927115962902218
 20
1349.643752573989
 30
0.0
 10
7.915062025904671
 20
1349.637967592055
 30
0.0
 10
7.902533274334189
 20
1349.634478623769
 30
0.0
 10
7.890503178348736
 20
1349.63112851956
 30
0.0
 10
7.87769723291575
 20
1349.629799927844
 30
0.0
 10
7.865208871936079
 20
1349.630605964071
 30
0.0
 10
7.858597658175997
 20
1349.631032671612
 30
0.0
 10
7.851998749796823
 20
1349.632048916752
 30
0.0
 10
7.845568942638015
 20
1349.633623674064
 30
0.0
  0
SPLINE
  5
2E3
330
1B
100
AcDbEntity
 67
     1
  8
0
  6
Continuous
 62
     7
370
    15
100
AcDbSpline
210
0.0
220
0.0
230
1.0
 70
     8
 71
     3
 72
    10
 73
     6
 74
     0
 42
0.000000001
 43
0.00000001
 40
0.0
 40
0.0
 40
0.0
 40
0.0
 40
0.5
 40
0.5
 40
1.0
 40
1.0
 40
1.0
 40
1.0
 10
21.28093719740172
 20
52.24763561117163
 30
0.0
 10
21.19071072418046
 20
52.24764290189965
 30
0.0
 10
21.09791532838629
 20
52.26767792505805
 30
0.0
 10
20.91273528346335
 20
52.34557343890878
 30
0.0
 10
20.82084100824742
 20
52.40303491184384
 30
0.0
 10
20.73021958170736
 20
52.47948394433877
 30
0.0
  0
SPLINE
  5
2E4
330
1B
100
AcDbEntity
 67
     1
  8
0
  6
Continuous
 62
     7
370
    15
100
AcDbSpline
210
0.0
220
0.0
230
1.0
 70
     8
 71
     3
 72
    12
 73
     8
 74
     0
 42
0.000000001
 43
0.00000001
 40
0.0
 40
0.0
 40
0.0
 40
0.0
 40
0.244283028497726
 40
0.4885660569953609
 40
0.7328490854929227
 40
0.9771321139904323
 40
1.0
 40
1.0
 40
1.0
 40
1.0
 10
22.9800272379999
 20
52.24754848945035
 30
0.0
 10
23.0384199778039
 20
52.24754667377562
 30
0.0
 10
23.15520545741187
 20
52.2475430424264
 30
0.0
 10
23.27371267822543
 20
52.24754042556068
 30
0.0
 10
23.34449182335635
 20
52.24753931362103
 30
0.0
 10
23.37360852438395
 20
52.24753923930226
 30
0.0
 10
23.36608281098625
 20
52.24753947788452
 30
0.0
 10
23.36543861646258
 20
52.24753949830696
 30
0.0
  0
SPLINE
  5
2E5
330
1B
100
AcDbEntity
 67
     1
  8
0
  6
Continuous
 62
     7
370
    15
100
AcDbSpline
210
0.0
220
0.0
230
1.0
 70
     8
 71
     3
 72
     9
 73
     5
 74
     0
 42
0.000000001
 43
0.00000001
 40
0.0
 40
0.0
 40
0.0
 40
0.0
 40
0.8597246189192245
 40
1.0
 40
1.0
 40
1.0
 40
1.0
 10
21.28135430947852
 20
57.04750084084009
 30
0.0
 10
21.21231423273273
 20
57.04751669252728
 30
0.0
 10
21.13200935925757
 20
57.04753513062577
 30
0.0
 10
21.05031659416215
 20
57.001591474664
 30
0.0
 10
21.03885711040684
 20
56.99514671081574
 30
0.0
  0
SPLINE
  5
2E6
330
1B
100
AcDbEntity
 67
     1
  8
0
  6
Continuous
 62
     7
370
    15
100
AcDbSpline
210
0.0
220
0.0
230
1.0
 70
     8
 71
     3
 72
    16
 73
    12
 74
     0
 42
0.000000001
 43
0.00000001
 40
0.0
 40
0.0
 40
0.0
 40
0.0
 40
0.1126874603377166
 40
0.236879329019665
 40
0.3610711977016443
 40
0.4852630663836641
 40
0.6094549350657337
 40
0.7336468037478596
 40
0.8578386724300461
 40
0.9820305411122965
 40
1.0
 40
1.0
 40
1.0
 40
1.0
 10
23.36545709480759
 20
57.04753922754924
 30
0.0
 10
23.36256856078538
 20
57.04753912985417
 30
0.0
 10
23.35649659857254
 20
57.04753892449044
 30
0.0
 10
23.2900362140233
 20
57.04753984382038
 30
0.0
 10
23.17939622655673
 20
57.04754230219966
 30
0.0
 10
23.02193821164599
 20
57.04754681296498
 30
0.0
 10
22.81892284494505
 20
57.04755391187199
 30
0.0
 10
22.57298325908369
 20
57.04756382076071
 30
0.0
 10
22.27608778989361
 20
57.04757801297811
 30
0.0
 10
22.05177723280069
 20
57.04758888604711
 30
0.0
 10
21.90153110713287
 20
57.04759804669168
 30
0.0
 10
21.88253971457643
 20
57.04759920461433
 30
0.0
  0
SPLINE
  5
2E7
330
1B
100
AcDbEntity
 67
     1
  8
0
  6
Continuous
 62
     7
370
    15
100
AcDbSpline
210
0.0
220
0.0
230
1.0
 70
     8
 71
     3
 72
    10
 73
     6
 74
     0
 42
0.000000001
 43
0.00000001
 40
0.0
 40
0.0
 40
0.0
 40
0.0
 40
0.499999999999999
 40
0.499999999999999
 40
1.0
 40
1.0
 40
1.0
 40
1.0
 10
20.73723113472916
 20
56.82166373089337
 30
0.0
 10
20.82680990191921
 20
56.89619900351117
 30
0.0
 10
20.91879198870256
 20
56.95289061108244
 30
0.0
 10
21.10162543516341
 20
57.0284804478699
 30
0.0
 10
21.1919548180432
 20
57.04764282074126
 30
0.0
 10
21.28100804150283
 20
57.04763562597548
 30
0.0
  0
SPLINE
  5
2E8
330
1B
100
AcDbEntity
 67
     1
  8
0
  6
Continuous
 62
     7
370
    15
100
AcDbSpline
210
0.0
220
0.0
230
1.0
 70
     8
 71
     3
 72
     8
 73
     4
 74
     0
 42
0.000000001
 43
0.00000001
 40
0.716033329840883
 40
0.716033329840883
 40
0.716033329840883
 40
0.716033329840883
 40
0.7206178795509914
 40
0.7206178795509914
 40
0.7206178795509914
 40
0.7206178795509914
 10
20.7372310595253
 20
56.8216636650235
 30
0.0
 10
20.73445074677375
 20
56.81922843255038
 30
0.0
 10
20.73167280030583
 20
56.81677422099274
 30
0.0
 10
20.72889730428415
 20
56.81430106696717
 30
0.0
  0
SPLINE
  5
2E9
330
1B
100
AcDbEntity
 67
     1
  8
0
  6
Continuous
 62
     7
370
    15
100
AcDbSpline
210
0.0
220
0.0
230
1.0
 70
     8
 71
     3
 72
     8
 73
     4
 74
     0
 42
0.000000001
 43
0.00000001
 40
0.2830007230843148
 40
0.2830007230843148
 40
0.2830007230843148
 40
0.2830007230843148
 40
0.2875289549704935
 40
0.2875289549704935
 40
0.2875289549704935
 40
0.2875289549704935
 10
20.72200026694503
 20
52.48684525422909
 30
0.0
 10
20.72473758366781
 20
52.48437304032527
 30
0.0
 10
20.72747735956123
 20
52.48191927877666
 30
0.0
 10
20.73021951351043
 20
52.47948400490598
 30
0.0
  0
SPLINE
  5
2EC
330
1B
100
AcDbEntity
 67
     1
  8
0
  6
Continuous
 62
     7
370
    15
100
AcDbSpline
210
0.0
220
0.0
230
1.0
 70
     8
 71
     3
 72
     8
 73
     4
 74
     0
 42
0.000000001
 43
0.00000001
 40
0.4389727495692697
 40
0.4389727495692697
 40
0.4389727495692697
 40
0.4389727495692697
 40
0.5022388492329182
 40
0.5022388492329182
 40
0.5022388492329182
 40
0.5022388492329182
 10
23.35265157365837
 20
55.45756057005669
 30
0.0
 10
23.38845458692435
 20
55.45756026389515
 30
0.0
 10
23.40583669287026
 20
55.45756050485928
 30
0.0
 10
23.40475082046936
 20
55.45756100657451
 30
0.0
  0
SPLINE
  5
2EF
330
1B
100
AcDbEntity
 67
     1
  8
0
  6
Continuous
 62
     7
370
    15
100
AcDbSpline
210
0.0
220
0.0
230
1.0
 70
     8
 71
     3
 72
     8
 73
     4
 74
     0
 42
0.000000001
 43
0.00000001
 40
0.3561846866840889
 40
0.3561846866840889
 40
0.3561846866840889
 40
0.3561846866840889
 40
0.420605252793042
 40
0.420605252793042
 40
0.420605252793042
 40
0.420605252793042
 10
23.31678039644948
 20
53.84529463661225
 30
0.0
 10
23.26942850408794
 20
53.84529529658278
 30
0.0
 10
23.20299146714555
 20
53.84529661009685
 30
0.0
 10
23.11751901160406
 20
53.84529887949385
 30
0.0
  0
SPLINE
  5
2F2
330
1B
100
AcDbEntity
 67
     1
  8
0
  6
Continuous
 62
     7
370
    15
100
AcDbSpline
210
0.0
220
0.0
230
1.0
 70
     8
 71
     3
 72
     8
 73
     4
 74
     0
 42
0.000000001
 43
0.00000001
 40
0.3561846866885109
 40
0.3561846866885109
 40
0.3561846866885109
 40
0.3561846866885109
 40
0.3701678866086886
 40
0.3701678866086886
 40
0.3701678866086886
 40
0.3701678866086886
 10
23.11757560487667
 20
55.45756539055613
 30
0.0
 10
23.13612652756809
 20
55.45756489802189
 30
0.0
 10
23.15378058458023
 20
55.45756445052152
 30
0.0
 10
23.17053726768322
 20
55.45756404496305
 30
0.0
  0
SPLINE
  5
2F3
330
1B
100
AcDbEntity
 67
     1
  8
0
  6
Continuous
 62
     7
370
    15
100
AcDbSpline
210
0.0
220
0.0
230
1.0
 70
     8
 71
     3
 72
     9
 73
     5
 74
     0
 42
0.000000001
 43
0.00000001
 40
0.0
 40
0.0
 40
0.0
 40
0.0
 40
0.8421170748496034
 40
1.0
 40
1.0
 40
1.0
 40
1.0
 10
21.426144689916
 20
52.24762126654525
 30
0.0
 10
22.05600223233214
 20
52.24758909153315
 30
0.0
 10
22.80394757298281
 20
52.24755088424227
 30
0.0
 10
22.97154321346768
 20
52.24754851872782
 30
0.0
 10
22.99800370342988
 20
52.24754814525356
 30
0.0
  0
SPLINE
  5
2F4
330
1B
100
AcDbEntity
 67
     1
  8
0
  6
Continuous
 62
     7
370
    15
100
AcDbSpline
210
0.0
220
0.0
230
1.0
 70
     8
 71
     3
 72
    20
 73
    16
 74
     0
 42
0.000000001
 43
0.00000001
 40
0.0
 40
0.0
 40
0.0
 40
0.0
 40
0.0420101062046087
 40
0.08365331855542
 40
0.1251118370805007
 40
0.1665702918629117
 40
0.2082133068489203
 40
0.2502230646349397
 40
0.3750532370934639
 40
0.5000795691606672
 40
0.6249303719622921
 40
0.7499312064205801
 40
0.8335159653329967
 40
0.9163968211842306
 40
1.0
 40
1.0
 40
1.0
 40
1.0
 10
20.10744737830063
 20
54.64771028623272
 30
0.0
 10
20.10804086751853
 20
54.59480070798362
 30
0.0
 10
20.10922266273617
 20
54.48944363551289
 30
0.0
 10
20.1189277168007
 20
54.33253937142835
 30
0.0
 10
20.13443891332995
 20
54.17769325188371
 30
0.0
 10
20.15626759090587
 20
54.0249182280077
 30
0.0
 10
20.18421909975362
 20
53.87420741890215
 30
0.0
 10
20.24037582942876
 20
53.6287671148018
 30
0.0
 10
20.34451972940625
 20
53.30238866522852
 30
0.0
 10
20.52143897235343
 20
52.93756927908766
 30
0.0
 10
20.72901891034086
 20
52.63678828526586
 30
0.0
 10
20.932530011872
 20
52.4397770184446
 30
0.0
 10
21.11504221911423
 20
52.32246761493475
 30
0.0
 10
21.27266126240722
 20
52.25909535241002
 30
0.0
 10
21.37483577949207
 20
52.25145703142975
 30
0.0
 10
21.42614468991909
 20
52.24762130077809
 30
0.0
  0
SPLINE
  5
2F5
330
1B
100
AcDbEntity
 67
     1
  8
0
  6
Continuous
 62
     7
370
    15
100
AcDbSpline
210
0.0
220
0.0
230
1.0
 70
     8
 71
     3
 72
    20
 73
    16
 74
     0
 42
0.000000001
 43
0.00000001
 40
0.0
 40
0.0
 40
0.0
 40
0.0
 40
0.0419883893353854
 40
0.0836253511865458
 40
0.1250870717827183
 40
0.1665519818937931
 40
0.2081984814880893
 40
0.2502026664152243
 40
0.375152922176393
 40
0.5000547460597922
 40
0.6250304517567165
 40
0.7499116920974583
 40
0.8334976579651759
 40
0.9163685085695267
 40
0.9999999999999999
 40
0.9999999999999999
 40
0.9999999999999999
 40
0.9999999999999999
 10
21.4265791682633
 20
57.04762127991791
 30
0.0
 10
21.40095969995417
 20
57.04665773995088
 30
0.0
 10
21.34993518892922
 20
57.04473872449456
 30
0.0
 10
21.27221246249555
 20
57.02903118590952
 30
0.0
 10
21.19425871263169
 20
57.00389276695206
 30
0.0
 10
21.1160129125999
 20
56.96843201643054
 30
0.0
 10
21.03755848211165
 20
56.92287047662792
 30
0.0
 10
20.90765542085231
 20
56.83088355893051
 30
0.0
 10
20.7294588569472
 20
56.6586126191081
 30
0.0
 10
20.52185678143525
 20
56.35787928124869
 30
0.0
 10
20.34486474457536
 20
55.99301354332808
 30
0.0
 10
20.22569416149538
 20
55.6203283787452
 30
0.0
 10
20.15375971278751
 20
55.2726472384486
 30
0.0
 10
20.11459418753687
 20
54.96292287993965
 30
0.0
 10
20.10983689237442
 20
54.75310066451211
 30
0.0
 10
20.10744737830063
 20
54.64771028623272
 30
0.0
  0
SPLINE
  5
2F6
330
1B
100
AcDbEntity
 67
     1
  8
0
  6
Continuous
 62
     7
370
    15
100
AcDbSpline
210
0.0
220
0.0
230
1.0
 70
     8
 71
     3
 72
     9
 73
     5
 74
     0
 42
0.000000001
 43
0.00000001
 40
0.0
 40
0.0
 40
0.0
 40
0.0
 40
0.9930330543167106
 40
1.0
 40
1.0
 40
1.0
 40
1.0
 10
23.3674081459435
 20
57.04753960297126
 30
0.0
 10
23.39226291882903
 20
57.0475393232368
 30
0.0
 10
23.41729206844041
 20
57.04753904153969
 30
0.0
 10
23.40462205761323
 20
57.04753931281847
 30
0.0
 10
23.40453378633599
 20
57.04753931470841
 30
0.0
  0
SPLINE
  5
2F8
330
1B
100
AcDbEntity
 67
     1
  8
0
  6
Continuous
 62
     7
370
    15
100
AcDbSpline
210
0.0
220
0.0
230
1.0
 70
     8
 71
     3
 72
     8
 73
     4
 74
     0
 42
0.000000001
 43
0.00000001
 40
0.0
 40
0.0
 40
0.0
 40
0.0
 40
1.0
 40
1.0
 40
1.0
 40
1.0
 10
21.58438060565465
 20
53.85992201438272
 30
0.0
 10
21.55116937389314
 20
54.0025247525987
 30
0.0
 10
21.51753292281352
 20
54.14512753766654
 30
0.0
 10
21.48347414102757
 20
54.28773037060852
 30
0.0
  0
SPLINE
  5
2F9
330
1B
100
AcDbEntity
 67
     1
  8
0
  6
Continuous
 62
     7
370
    15
100
AcDbSpline
210
0.0
220
0.0
230
1.0
 70
     8
 71
     3
 72
     8
 73
     4
 74
     0
 42
0.000000001
 43
0.00000001
 40
0.1009071999826865
 40
0.1009071999826865
 40
0.1009071999826865
 40
0.1009071999826865
 40
0.1128560361267588
 40
0.1128560361267588
 40
0.1128560361267588
 40
0.1128560361267588
 10
21.22763196652118
 20
55.45765499601541
 30
0.0
 10
21.27012703707447
 20
55.45765236047495
 30
0.0
 10
21.31204645656915
 20
55.45764979472978
 30
0.0
 10
21.35338551218776
 20
55.45764729711178
 30
0.0
  0
SPLINE
  5
2FA
330
1B
100
AcDbEntity
 67
     1
  8
0
  6
Continuous
 62
     7
370
    15
100
AcDbSpline
210
0.0
220
0.0
230
1.0
 70
     8
 71
     3
 72
     8
 73
     4
 74
     0
 42
0.000000001
 43
0.00000001
 40
0.0
 40
0.0
 40
0.0
 40
0.0
 40
1.0
 40
1.0
 40
1.0
 40
1.0
 10
20.81364037193731
 20
53.85997005445087
 30
0.0
 10
20.95713497023085
 20
54.39253099023433
 30
0.0
 10
21.09517973803903
 20
54.92509265450207
 30
0.0
 10
21.22763196652125
 20
55.4576549967456
 30
0.0
  0
SPLINE
  5
2FB
330
1B
100
AcDbEntity
 67
     1
  8
0
  6
Continuous
 62
     7
370
    15
100
AcDbSpline
210
0.0
220
0.0
230
1.0
 70
     8
 71
     3
 72
     8
 73
     4
 74
     0
 42
0.000000001
 43
0.00000001
 40
0.0
 40
0.0
 40
0.0
 40
0.0
 40
1.0
 40
1.0
 40
1.0
 40
1.0
 10
22.34290157749034
 20
53.85988271596487
 30
0.0
 10
22.23456273918005
 20
54.23272505723597
 30
0.0
 10
22.11823287310741
 20
54.60556807490202
 30
0.0
 10
21.99412816597352
 20
54.9784118454546
 30
0.0
  0
SPLINE
  5
2FC
330
1B
100
AcDbEntity
 67
     1
  8
0
  6
Continuous
 62
     7
370
    15
100
AcDbSpline
210
0.0
220
0.0
230
1.0
 70
     8
 71
     3
 72
     8
 73
     4
 74
     0
 42
0.000000001
 43
0.00000001
 40
0.2227459756816688
 40
0.2227459756816688
 40
0.2227459756816688
 40
0.2227459756816688
 40
0.2356840922311198
 40
0.2356840922311198
 40
0.2356840922311198
 40
0.2356840922311198
 10
22.34300862270182
 20
55.45759438652554
 30
0.0
 10
22.37577997734824
 20
55.45759288619545
 30
0.0
 10
22.40782007333804
 20
55.45759144775442
 30
0.0
 10
22.43912292769911
 20
55.45759006908457
 30
0.0
  0
SPLINE
  5
2FE
330
1B
100
AcDbEntity
 67
     1
  8
0
  6
Continuous
 62
     7
370
    15
100
AcDbSpline
210
0.0
220
0.0
230
1.0
 70
     8
 71
     3
 72
     8
 73
     4
 74
     0
 42
0.000000001
 43
0.00000001
 40
0.1663392035422946
 40
0.1663392035422946
 40
0.1663392035422946
 40
0.1663392035422946
 40
0.1799660935471793
 40
0.1799660935471793
 40
0.1799660935471793
 40
0.1799660935471793
 10
21.87318329821489
 20
55.4576176994992
 30
0.0
 10
21.9142951263638
 20
55.45761550853712
 30
0.0
 10
21.95462470019615
 20
55.45761339647037
 30
0.0
 10
21.99416502944032
 20
55.45761136082472
 30
0.0
  0
SPLINE
  5
300
330
1B
100
AcDbEntity
 67
     1
  8
0
  6
Continuous
 62
     7
370
    15
100
AcDbSpline
210
0.0
220
0.0
230
1.0
 70
     8
 71
     3
 72
     8
 73
     4
 74
     0
 42
0.000000001
 43
0.00000001
 40
0.0
 40
0.0
 40
0.0
 40
0.0
 40
1.0
 40
1.0
 40
1.0
 40
1.0
 10
22.96819114437484
 20
55.00768092154262
 30
0.0
 10
22.98397069646976
 20
55.08250717712204
 30
0.0
 10
22.99933621678268
 20
55.15733350475139
 30
0.0
 10
23.01428648494243
 20
55.23215981984253
 30
0.0
  0
SPLINE
  5
301
330
1B
100
AcDbEntity
 67
     1
  8
0
  6
Continuous
 62
     7
370
    15
100
AcDbSpline
210
0.0
220
0.0
230
1.0
 70
     8
 71
     3
 72
    14
 73
    10
 74
     0
 42
0.000000001
 43
0.00000001
 40
0.0
 40
0.0
 40
0.0
 40
0.0
 40
0.2609796599347627
 40
0.3913707169853991
 40
0.5205184320097792
 40
0.6498746850930042
 40
0.7798294035109824
 40
0.896460389619652
 40
1.0
 40
1.0
 40
1.0
 40
1.0
 10
23.01428648474588
 20
55.23215981984253
 30
0.0
 10
22.94531831112813
 20
55.46032196958217
 30
0.0
 10
22.7848782998729
 20
55.60813317489788
 30
0.0
 10
22.57196914609488
 20
55.12229359676268
 30
0.0
 10
22.54547755997945
 20
54.49128911481749
 30
0.0
 10
22.65034609911886
 20
53.96683349424225
 30
0.0
 10
22.81625288981429
 20
53.7689086613593
 30
0.0
 10
22.93760950500282
 20
53.86241089374965
 30
0.0
 10
23.02223754503929
 20
54.04342372478832
 30
0.0
 10
23.0260270073721
 20
54.19541478154388
 30
0.0
  0
SPLINE
  5
307
330
1B
100
AcDbEntity
 67
     1
  8
0
  6
Continuous
 62
     7
370
    15
100
AcDbSpline
210
0.0
220
0.0
230
1.0
 70
     8
 71
     3
 72
    11
 73
     7
 74
     0
 42
0.000000001
 43
0.00000001
 40
0.0
 40
0.0
 40
0.0
 40
0.0
 40
0.2278760094989681
 40
0.463932606092325
 40
0.7236481663609595
 40
1.0
 40
1.0
 40
1.0
 40
1.0
 10
22.96397611648102
 20
54.41597748744987
 30
0.0
 10
22.95966498840156
 20
54.19555303659962
 30
0.0
 10
22.81205695507417
 20
53.95094538628198
 30
0.0
 10
22.59761926027815
 20
54.47618096478257
 30
0.0
 10
22.75233484303672
 20
55.40065108170433
 30
0.0
 10
22.91777669041408
 20
55.16770620813527
 30
0.0
 10
22.96819114417887
 20
55.00768092154262
 30
0.0
  0
SPLINE
  5
30A
330
1B
100
AcDbEntity
 67
     1
  8
0
  6
Continuous
 62
     7
370
    15
100
AcDbSpline
210
0.0
220
0.0
230
1.0
 70
     8
 71
     3
 72
    11
 73
     7
 74
     0
 42
0.000000001
 43
0.00000001
 40
0.0
 40
0.0
 40
0.0
 40
0.0
 40
0.105044776869555
 40
0.3269484687431096
 40
0.5488659293962963
 40
0.7160333298410096
 40
0.7160333298410096
 40
0.7160333298410096
 40
0.7160333298410096
 10
20.72889730428438
 20
56.81430106696739
 30
0.0
 10
20.66530297578207
 20
56.7576342339734
 30
0.0
 10
20.47137179234259
 20
56.55030796262006
 30
0.0
 10
20.18319535799115
 20
56.04769211410287
 30
0.0
 10
19.98796016016277
 20
55.34569736528561
 30
0.0
 10
19.94883190687742
 20
54.85591485385388
 30
0.0
 10
19.94880727828755
 20
54.64773191802963
 30
0.0
  0
SPLINE
  5
30B
330
1B
100
AcDbEntity
 67
     1
  8
0
  6
Continuous
 62
     7
370
    15
100
AcDbSpline
210
0.0
220
0.0
230
1.0
 70
     8
 71
     3
 72
    11
 73
     7
 74
     0
 42
0.000000001
 43
0.00000001
 40
0.2875289549704935
 40
0.2875289549704935
 40
0.2875289549704935
 40
0.2875289549704935
 40
0.4546960502224658
 40
0.6766132856922757
 40
0.8985169505416741
 40
1.0
 40
1.0
 40
1.0
 40
1.0
 10
19.94880727828755
 20
54.64773191802963
 30
0.0
 10
19.94878462788663
 20
54.43954864201561
 30
0.0
 10
19.98780168545208
 20
53.94976022391695
 30
0.0
 10
20.18288600223303
 20
53.24773400974303
 30
0.0
 10
20.46910237032256
 20
52.74833849075511
 30
0.0
 10
20.66065375127543
 20
52.54225050117156
 30
0.0
 10
20.72200026694503
 20
52.48684525422909
 30
0.0
  0
SPLINE
  5
30E
330
1B
100
AcDbEntity
 67
     1
  8
0
  6
Continuous
 62
     7
370
    15
100
AcDbSpline
210
0.0
220
0.0
230
1.0
 70
     8
 71
     3
 72
     8
 73
     4
 74
     0
 42
0.000000001
 43
0.00000001
 40
0.0
 40
0.0
 40
0.0
 40
0.0
 40
1.0
 40
1.0
 40
1.0
 40
1.0
 10
20.8560603972583
 20
53.85996511967384
 30
0.0
 10
21.00018337027116
 20
54.39252605016654
 30
0.0
 10
21.13885772782079
 20
54.92508781721139
 30
0.0
 10
21.27191481070252
 20
55.45765037344275
 30
0.0
  0
SPLINE
  5
310
330
1B
100
AcDbEntity
 67
     1
  8
0
  6
Continuous
 62
     7
370
    15
100
AcDbSpline
210
0.0
220
0.0
230
1.0
 70
     8
 71
     3
 72
     8
 73
     4
 74
     0
 42
0.000000001
 43
0.00000001
 40
0.0
 40
0.0
 40
0.0
 40
0.0
 40
1.0
 40
1.0
 40
1.0
 40
1.0
 10
21.33584730043444
 20
55.07459225751954
 30
0.0
 10
21.37869128363304
 20
54.90377024224524
 30
0.0
 10
21.4209339925186
 20
54.73294830388675
 30
0.0
 10
21.46256994850198
 20
54.5621264407481
 30
0.0
  0
SPLINE
  5
311
330
1B
100
AcDbEntity
 67
     1
  8
0
  6
Continuous
 62
     7
370
    15
100
AcDbSpline
210
0.0
220
0.0
230
1.0
 70
     8
 71
     3
 72
     8
 73
     4
 74
     0
 42
0.000000001
 43
0.00000001
 40
0.0
 40
0.0
 40
0.0
 40
0.0
 40
1.0
 40
1.0
 40
1.0
 40
1.0
 10
21.21120720126435
 20
54.56214154546146
 30
0.0
 10
21.25330119894079
 20
54.73295837223169
 30
0.0
 10
21.29484954288849
 20
54.90377527674095
 30
0.0
 10
21.33584730043444
 20
55.07459225751954
 30
0.0
  0
SPLINE
  5
312
330
1B
100
AcDbEntity
 67
     1
  8
0
  6
Continuous
 62
     7
370
    15
100
AcDbSpline
210
0.0
220
0.0
230
1.0
 70
     8
 71
     3
 72
     8
 73
     4
 74
     0
 42
0.000000001
 43
0.00000001
 40
0.0
 40
0.0
 40
0.0
 40
0.0
 40
1.0
 40
1.0
 40
1.0
 40
1.0
 10
21.46256994850198
 20
54.5621264407481
 30
0.0
 10
21.38109221290441
 20
54.56213120256381
 30
0.0
 10
21.29729075981323
 20
54.56213623325434
 30
0.0
 10
21.21120720126435
 20
54.56214154546146
 30
0.0
  0
SPLINE
  5
313
330
1B
100
AcDbEntity
 67
     1
  8
0
  6
Continuous
 62
     7
370
    15
100
AcDbSpline
210
0.0
220
0.0
230
1.0
 70
     8
 71
     3
 72
     8
 73
     4
 74
     0
 42
0.000000001
 43
0.00000001
 40
0.0
 40
0.0
 40
0.0
 40
0.0
 40
1.0
 40
1.0
 40
1.0
 40
1.0
 10
21.27191481070252
 20
55.45765037344275
 30
0.0
 10
21.31460483707258
 20
55.45764777203266
 30
0.0
 10
21.35671674402661
 20
55.45764524087782
 30
0.0
 10
21.39824525659137
 20
55.45764277837706
 30
0.0
  0
SPLINE
  5
314
330
1B
100
AcDbEntity
 67
     1
  8
0
  6
Continuous
 62
     7
370
    15
100
AcDbSpline
210
0.0
220
0.0
230
1.0
 70
     8
 71
     3
 72
     8
 73
     4
 74
     0
 42
0.000000001
 43
0.00000001
 40
0.0
 40
0.0
 40
0.0
 40
0.0
 40
1.0
 40
1.0
 40
1.0
 40
1.0
 10
21.39824525659137
 20
55.45764277837706
 30
0.0
 10
21.52998482136373
 20
54.92506436031475
 30
0.0
 10
21.65585247996176
 20
54.39248668198671
 30
0.0
 10
21.7756896095066
 20
53.85990969115595
 30
0.0
  0
SPLINE
  5
315
330
1B
100
AcDbEntity
 67
     1
  8
0
  6
Continuous
 62
     7
370
    15
100
AcDbSpline
210
0.0
220
0.0
230
1.0
 70
     8
 71
     3
 72
     8
 73
     4
 74
     0
 42
0.000000001
 43
0.00000001
 40
0.0
 40
0.0
 40
0.0
 40
0.0
 40
1.0
 40
1.0
 40
1.0
 40
1.0
 10
21.7756896095066
 20
53.85990969115595
 30
0.0
 10
21.72816942039771
 20
53.85991226147091
 30
0.0
 10
21.67970112440811
 20
53.85991493221065
 30
0.0
 10
21.63029432833778
 20
53.85991770666387
 30
0.0
  0
SPLINE
  5
316
330
1B
100
AcDbEntity
 67
     1
  8
0
  6
Continuous
 62
     7
370
    15
100
AcDbSpline
210
0.0
220
0.0
230
1.0
 70
     8
 71
     3
 72
     8
 73
     4
 74
     0
 42
0.000000001
 43
0.00000001
 40
0.0
 40
0.0
 40
0.0
 40
0.0
 40
1.0
 40
1.0
 40
1.0
 40
1.0
 10
21.63029432833778
 20
53.85991770666387
 30
0.0
 10
21.59693288778341
 20
54.0025204093475
 30
0.0
 10
21.56314355120897
 20
54.14512316281139
 30
0.0
 10
21.52892937264692
 20
54.28772596805764
 30
0.0
  0
SPLINE
  5
317
330
1B
100
AcDbEntity
 67
     1
  8
0
  6
Continuous
 62
     7
370
    15
100
AcDbSpline
210
0.0
220
0.0
230
1.0
 70
     8
 71
     3
 72
     8
 73
     4
 74
     0
 42
0.000000001
 43
0.00000001
 40
0.0
 40
0.0
 40
0.0
 40
0.0
 40
1.0
 40
1.0
 40
1.0
 40
1.0
 10
21.52892937264692
 20
54.28772596805764
 30
0.0
 10
21.40494281653309
 20
54.28773310339885
 30
0.0
 10
21.27537609728606
 20
54.28774087299981
 30
0.0
 10
21.14038293713735
 20
54.28774932356306
 30
0.0
  0
SPLINE
  5
318
330
1B
100
AcDbEntity
 67
     1
  8
0
  6
Continuous
 62
     7
370
    15
100
AcDbSpline
210
0.0
220
0.0
230
1.0
 70
     8
 71
     3
 72
     8
 73
     4
 74
     0
 42
0.000000001
 43
0.00000001
 40
0.0
 40
0.0
 40
0.0
 40
0.0
 40
1.0
 40
1.0
 40
1.0
 40
1.0
 10
21.14038293713735
 20
54.28774932356306
 30
0.0
 10
21.10058815778149
 20
54.1451509730031
 30
0.0
 10
21.06032188829412
 20
54.0025526905391
 30
0.0
 10
21.01958828088526
 20
53.85995447734104
 30
0.0
  0
SPLINE
  5
319
330
1B
100
AcDbEntity
 67
     1
  8
0
  6
Continuous
 62
     7
370
    15
100
AcDbSpline
210
0.0
220
0.0
230
1.0
 70
     8
 71
     3
 72
     8
 73
     4
 74
     0
 42
0.000000001
 43
0.00000001
 40
0.0
 40
0.0
 40
0.0
 40
0.0
 40
1.0
 40
1.0
 40
1.0
 40
1.0
 10
21.01958828088526
 20
53.85995447734104
 30
0.0
 10
20.96588795445572
 20
53.85995791903686
 30
0.0
 10
20.9113754028517
 20
53.85996146559846
 30
0.0
 10
20.8560603972583
 20
53.85996511967384
 30
0.0
  0
SPLINE
  5
31B
330
1B
100
AcDbEntity
 67
     1
  8
0
  6
Continuous
 62
     7
370
    15
100
AcDbSpline
210
0.0
220
0.0
230
1.0
 70
     8
 71
     3
 72
     9
 73
     5
 74
     0
 42
0.000000001
 43
0.00000001
 40
0.0
 40
0.0
 40
0.0
 40
0.0
 40
0.673823700848441
 40
1.0
 40
1.0
 40
1.0
 40
1.0
 10
21.41880674611128
 20
54.56213076550964
 30
0.0
 10
21.37303036022014
 20
54.56213351004035
 30
0.0
 10
21.30509510381183
 20
54.56213758310968
 30
0.0
 10
21.23429950938784
 20
54.56214199845444
 30
0.0
 10
21.21120766440239
 20
54.5621434386353
 30
0.0
  0
SPLINE
  5
31C
330
1B
100
AcDbEntity
 67
     1
  8
0
  6
Continuous
 62
     7
370
    15
100
AcDbSpline
210
0.0
220
0.0
230
1.0
 70
     8
 71
     3
 72
     9
 73
     5
 74
     0
 42
0.000000001
 43
0.00000001
 40
0.0
 40
0.0
 40
0.0
 40
0.0
 40
0.4680258090329042
 40
1.0
 40
1.0
 40
1.0
 40
1.0
 10
21.31445768563631
 20
54.9859953728562
 30
0.0
 10
21.33091561587846
 20
54.91986881188493
 30
0.0
 10
21.36608019425109
 20
54.77858053312956
 30
0.0
 10
21.40049758337623
 20
54.63729240380199
 30
0.0
 10
21.41880674611128
 20
54.56213076550964
 30
0.0
  0
SPLINE
  5
32C
330
1B
100
AcDbEntity
 67
     1
  8
0
  6
Continuous
 62
     7
370
    15
100
AcDbSpline
210
0.0
220
0.0
230
1.0
 70
     8
 71
     3
 72
     8
 73
     4
 74
     0
 42
0.000000001
 43
0.00000001
 40
0.0
 40
0.0
 40
0.0
 40
0.0
 40
1.0
 40
1.0
 40
1.0
 40
1.0
 10
21.92037985886547
 20
55.45761369190072
 30
0.0
 10
21.96167028500369
 20
55.45761154714312
 30
0.0
 10
22.00217361096781
 20
55.457609482088
 30
0.0
 10
22.0418832383968
 20
55.45760749422723
 30
0.0
  0
SPLINE
  5
32D
330
1B
100
AcDbEntity
 67
     1
  8
0
  6
Continuous
 62
     7
370
    15
100
AcDbSpline
210
0.0
220
0.0
230
1.0
 70
     8
 71
     3
 72
     8
 73
     4
 74
     0
 42
0.000000001
 43
0.00000001
 40
0.0
 40
0.0
 40
0.0
 40
0.0
 40
1.0
 40
1.0
 40
1.0
 40
1.0
 10
22.0418832383968
 20
55.45760749422723
 30
0.0
 10
22.16651253878047
 20
55.08476384164362
 30
0.0
 10
22.2833218145949
 20
54.7119209783653
 30
0.0
 10
22.39212369526578
 20
54.33907882526889
 30
0.0
  0
SPLINE
  5
32F
330
1B
100
AcDbEntity
 67
     1
  8
0
  6
Continuous
 62
     7
370
    15
100
AcDbSpline
210
0.0
220
0.0
230
1.0
 70
     8
 71
     3
 72
     8
 73
     4
 74
     0
 42
0.000000001
 43
0.00000001
 40
0.0
 40
0.0
 40
0.0
 40
0.0
 40
1.0
 40
1.0
 40
1.0
 40
1.0
 10
22.39219887488484
 20
55.4575909766597
 30
0.0
 10
22.42510911878374
 20
55.45758952573254
 30
0.0
 10
22.45728685731913
 20
55.45758813713908
 30
0.0
 10
22.48872736579454
 20
55.45758680864898
 30
0.0
  0
SPLINE
  5
331
330
1B
100
AcDbEntity
 67
     1
  8
0
  6
Continuous
 62
     7
370
    15
100
AcDbSpline
210
0.0
220
0.0
230
1.0
 70
     8
 71
     3
 72
     8
 73
     4
 74
     0
 42
0.000000001
 43
0.00000001
 40
0.0
 40
0.0
 40
0.0
 40
0.0
 40
1.0
 40
1.0
 40
1.0
 40
1.0
 10
22.48862484397802
 20
53.85987514061685
 30
0.0
 10
22.45718270906194
 20
53.85987646921342
 30
0.0
 10
22.4250033479477
 20
53.85987785791579
 30
0.0
 10
22.39209148557006
 20
53.85987930895419
 30
0.0
  0
SPLINE
  5
332
330
1B
100
AcDbEntity
 67
     1
  8
0
  6
Continuous
 62
     7
370
    15
100
AcDbSpline
210
0.0
220
0.0
230
1.0
 70
     8
 71
     3
 72
     8
 73
     4
 74
     0
 42
0.000000001
 43
0.00000001
 40
0.0
 40
0.0
 40
0.0
 40
0.0
 40
1.0
 40
1.0
 40
1.0
 40
1.0
 10
22.39209148557006
 20
53.85987930895419
 30
0.0
 10
22.28328800012726
 20
54.23272146216096
 30
0.0
 10
22.1664771329857
 20
54.60556432555774
 30
0.0
 10
22.04184625727194
 20
54.97840797826781
 30
0.0
  0
SPLINE
  5
334
330
1B
100
AcDbEntity
 67
     1
  8
0
  6
Continuous
 62
     7
370
    15
100
AcDbSpline
210
0.0
220
0.0
230
1.0
 70
     8
 71
     3
 72
     8
 73
     4
 74
     0
 42
0.000000001
 43
0.00000001
 40
0.0
 40
0.0
 40
0.0
 40
0.0
 40
1.0
 40
1.0
 40
1.0
 40
1.0
 10
22.04175993680859
 20
53.85989582770645
 30
0.0
 10
22.00204863586212
 20
53.85989781570166
 30
0.0
 10
21.96154364179378
 20
53.85989988089368
 30
0.0
 10
21.92025155323627
 20
53.85990202579094
 30
0.0
  0
SPLINE
  5
338
330
1B
100
AcDbEntity
 67
     1
  8
0
  6
Continuous
 62
     7
370
    15
100
AcDbSpline
210
0.0
220
0.0
230
1.0
 70
     8
 71
     3
 72
    29
 73
    25
 74
     0
 42
0.000000001
 43
0.00000001
 40
0.0
 40
0.0
 40
0.0
 40
0.0
 40
0.0255628915469489
 40
0.050686500918593
 40
0.0755459783997637
 40
0.1003220711363561
 40
0.1251973374663253
 40
0.1881034413759887
 40
0.2500783842944563
 40
0.3151042389623097
 40
0.374836489701679
 40
0.4361851173494296
 40
0.4995627789240742
 40
0.5610480258108702
 40
0.6243669322262663
 40
0.6859098029365324
 40
0.7490736967340097
 40
0.8104888162837219
 40
0.8739906849230927
 40
0.9086838372277315
 40
0.9377802920107968
 40
0.9618800036759897
 40
0.9820341026536387
 40
1.0
 40
1.0
 40
1.0
 40
1.0
 10
23.06303974422005
 20
55.23215781162416
 30
0.0
 10
23.05598982848993
 20
55.25414571819432
 30
0.0
 10
23.04201114538695
 20
55.29774368302232
 30
0.0
 10
23.01903112999131
 20
55.35282165402178
 30
0.0
 10
22.99479166817888
 20
55.39932187132335
 30
0.0
 10
22.96907224918103
 20
55.43654670955267
 30
0.0
 10
22.92819365762842
 20
55.47909403221441
 30
0.0
 10
22.86895250205312
 20
55.50122257528478
 30
0.0
 10
22.78987576950972
 20
55.45264203116184
 30
0.0
 10
22.71270560277573
 20
55.33830413954111
 30
0.0
 10
22.6485062221293
 20
55.14156705782391
 30
0.0
 10
22.60938079536807
 20
54.8845993636482
 30
0.0
 10
22.60500404806615
 20
54.59881103075448
 30
0.0
 10
22.6295701277814
 20
54.32131967157172
 30
0.0
 10
22.68119805771785
 20
54.08814400733386
 30
0.0
 10
22.74968518368911
 20
53.91087492401881
 30
0.0
 10
22.82731404156308
 20
53.82098149908232
 30
0.0
 10
22.90441762366179
 20
53.8037502677734
 30
0.0
 10
22.96454079202656
 20
53.8525840561711
 30
0.0
 10
23.00778985772743
 20
53.91813758996944
 30
0.0
 10
23.03550413509211
 20
53.97646537482914
 30
0.0
 10
23.05571566665289
 20
54.04131125355538
 30
0.0
 10
23.06981522494051
 20
54.11326986479126
 30
0.0
 10
23.07321482617807
 20
54.16910009727616
 30
0.0
 10
23.07481705316501
 20
54.19541280248008
 30
0.0
  0
SPLINE
  5
339
330
1B
100
AcDbEntity
 67
     1
  8
0
  6
Continuous
 62
     7
370
    15
100
AcDbSpline
210
0.0
220
0.0
230
1.0
 70
     8
 71
     3
 72
     8
 73
     4
 74
     0
 42
0.000000001
 43
0.00000001
 40
0.0
 40
0.0
 40
0.0
 40
0.0
 40
1.0
 40
1.0
 40
1.0
 40
1.0
 10
22.86782584111298
 20
54.49611950864597
 30
0.0
 10
22.91937190987095
 20
54.49611777048769
 30
0.0
 10
22.96763209556975
 20
54.49611624911388
 30
0.0
 10
23.01257559692437
 20
54.49611492343443
 30
0.0
  0
SPLINE
  5
33B
330
1B
100
AcDbEntity
 67
     1
  8
0
  6
Continuous
 62
     7
370
    15
100
AcDbSpline
210
0.0
220
0.0
230
1.0
 70
     8
 71
     3
 72
     8
 73
     4
 74
     0
 42
0.000000001
 43
0.00000001
 40
0.0
 40
0.0
 40
0.0
 40
0.0
 40
1.0
 40
1.0
 40
1.0
 40
1.0
 10
23.07484150842123
 20
54.79681350151322
 30
0.0
 10
23.01309068309259
 20
54.79681519191271
 30
0.0
 10
22.94405839942999
 20
54.79681728795826
 30
0.0
 10
22.86784096541409
 20
54.79681985803064
 30
0.0
  0
SPLINE
  5
33D
330
1B
100
AcDbEntity
 67
     1
  8
0
  6
Continuous
 62
     7
370
    15
100
AcDbSpline
210
0.0
220
0.0
230
1.0
 70
     8
 71
     3
 72
     8
 73
     4
 74
     0
 42
0.000000001
 43
0.00000001
 40
0.0
 40
0.0
 40
0.0
 40
0.0
 40
1.0
 40
1.0
 40
1.0
 40
1.0
 10
23.01680029762754
 20
55.00767880303603
 30
0.0
 10
23.0326292020723
 20
55.08250510923884
 30
0.0
 10
23.04804278302785
 20
55.15733144574808
 30
0.0
 10
23.06303980888129
 20
55.2321578116215
 30
0.0
  0
SPLINE
  5
33E
330
1B
100
AcDbEntity
 67
     1
  8
0
  6
Continuous
 62
     7
370
    15
100
AcDbSpline
210
0.0
220
0.0
230
1.0
 70
     8
 71
     3
 72
    29
 73
    25
 74
     0
 42
0.000000001
 43
0.00000001
 40
0.0
 40
0.0
 40
0.0
 40
0.0
 40
0.0171000492842313
 40
0.0335713364673149
 40
0.0499714303540958
 40
0.0668649574466972
 40
0.0847699323878682
 40
0.1041233298408014
 40
0.1252725405461159
 40
0.1866730385452757
 40
0.2500444897388892
 40
0.3131335036556026
 40
0.3749502425370646
 40
0.4391882345161293
 40
0.4994099017321617
 40
0.560401852001786
 40
0.6240344612409938
 40
0.6870399707280188
 40
0.7485133793159593
 40
0.7978556044854185
 40
0.8460892927295575
 40
0.8948384139753338
 40
0.9456775869042479
 40
1.0
 40
1.0
 40
1.0
 40
1.0
 10
23.01257039184958
 20
54.41597535924303
 30
0.0
 10
23.01207360334307
 20
54.39826752678422
 30
0.0
 10
23.01109829304845
 20
54.3635029719165
 30
0.0
 10
23.00695266346353
 20
54.31412386107715
 30
0.0
 10
23.00080391013109
 20
54.26900730704354
 30
0.0
 10
22.99246723442513
 20
54.22833585841047
 30
0.0
 10
22.98197502801834
 20
54.19211201076202
 30
0.0
 10
22.96926591587847
 20
54.16028451288612
 30
0.0
 10
22.94534090187271
 20
54.11618427592846
 30
0.0
 10
22.90700730851437
 20
54.08054387962291
 30
0.0
 10
22.85432768204796
 20
54.09646774020482
 30
0.0
 10
22.80196916771157
 20
54.15930873085539
 30
0.0
 10
22.75408733177736
 20
54.2693140985252
 30
0.0
 10
22.71536392061929
 20
54.41943344362154
 30
0.0
 10
22.6983708882321
 20
54.60984445368511
 30
0.0
 10
22.70437558796138
 20
54.80610580637424
 30
0.0
 10
22.73270383637385
 20
54.98152085249674
 30
0.0
 10
22.77449903428879
 20
55.12258597486475
 30
0.0
 10
22.82359736625269
 20
55.19017859362818
 30
0.0
 10
22.86883773753832
 20
55.20966029004759
 30
0.0
 10
22.90937298735707
 20
55.20225610445539
 30
0.0
 10
22.94776734061694
 20
55.16528573239709
 30
0.0
 10
22.98433397738775
 20
55.10138907470375
 30
0.0
 10
23.0057408317891
 20
55.0395977925513
 30
0.0
 10
23.01679878585607
 20
55.00767880310198
 30
0.0
  0
SPLINE
  5
349
330
1B
100
AcDbEntity
 67
     1
  8
0
  6
Continuous
 62
     7
370
    15
100
AcDbSpline
210
0.0
220
0.0
230
1.0
 70
     8
 71
     3
 72
     8
 73
     4
 74
     0
 42
0.000000001
 43
0.00000001
 40
0.0
 40
0.0
 40
0.0
 40
0.0
 40
1.0
 40
1.0
 40
1.0
 40
1.0
 10
23.17203963841726
 20
55.4575634897767
 30
0.0
 10
23.19081359892264
 20
55.45756304921723
 30
0.0
 10
23.20868695266172
 20
55.45756265373214
 30
0.0
 10
23.22565663273584
 20
55.4575623003144
 30
0.0
  0
SPLINE
  5
34B
330
1B
100
AcDbEntity
 67
     1
  8
0
  6
Continuous
 62
     7
370
    15
100
AcDbSpline
210
0.0
220
0.0
230
1.0
 70
     8
 71
     3
 72
     8
 73
     4
 74
     0
 42
0.000000001
 43
0.00000001
 40
0.0
 40
0.0
 40
0.0
 40
0.0
 40
1.0
 40
1.0
 40
1.0
 40
1.0
 10
23.22561405477585
 20
54.11902158631688
 30
0.0
 10
23.28683926051917
 20
54.11902031115456
 30
0.0
 10
23.33629937018416
 20
54.11901958368514
 30
0.0
 10
23.37388399544938
 20
54.11901926124141
 30
0.0
  0
SPLINE
  5
34D
330
1B
100
AcDbEntity
 67
     1
  8
0
  6
Continuous
 62
     7
370
    15
100
AcDbSpline
210
0.0
220
0.0
230
1.0
 70
     8
 71
     3
 72
     8
 73
     4
 74
     0
 42
0.000000001
 43
0.00000001
 40
0.0
 40
0.0
 40
0.0
 40
0.0
 40
1.0
 40
1.0
 40
1.0
 40
1.0
 10
23.3738786644107
 20
53.84529349490763
 30
0.0
 10
23.32587439849766
 20
53.84529390675852
 30
0.0
 10
23.2584940616204
 20
53.8452949795003
 30
0.0
 10
23.17198285821042
 20
53.84529700971508
 30
0.0
  0
SPLINE
  5
353
330
1B
100
AcDbEntity
 67
     1
  8
0
  6
Continuous
 62
     7
370
    15
100
AcDbSpline
210
0.0
220
0.0
230
1.0
 70
     8
 71
     3
 72
     8
 73
     4
 74
     0
 42
0.000000001
 43
0.00000001
 40
0.0
 40
0.0
 40
0.0
 40
0.0
 40
1.0
 40
1.0
 40
1.0
 40
1.0
 10
23.41024286276891
 20
55.45755977761269
 30
0.0
 10
23.44652810010085
 20
55.45755971922483
 30
0.0
 10
23.4640741625017
 20
55.45756021575554
 30
0.0
 10
23.46281942041321
 20
55.45756098062338
 30
0.0
  0
SPLINE
  5
354
330
1B
100
AcDbEntity
 67
     1
  8
0
  6
Continuous
 62
     7
370
    15
100
AcDbSpline
210
0.0
220
0.0
230
1.0
 70
     8
 71
     3
 72
     9
 73
     5
 74
     0
 42
0.000000001
 43
0.00000001
 40
0.0
 40
0.0
 40
0.0
 40
0.0
 40
0.5404953489081457
 40
1.0
 40
1.0
 40
1.0
 40
1.0
 10
23.46211935295336
 20
55.16264761240963
 30
0.0
 10
23.46089101667555
 20
55.16264732385767
 30
0.0
 10
23.45861840456097
 20
55.16264678999194
 30
0.0
 10
23.43972634325353
 20
55.16264659722714
 30
0.0
 10
23.43104535321405
 20
55.16264650865077
 30
0.0
  0
SPLINE
  5
356
330
1B
100
AcDbEntity
 67
     1
  8
0
  6
Continuous
 62
     7
370
    15
100
AcDbSpline
210
0.0
220
0.0
230
1.0
 70
     8
 71
     3
 72
     8
 73
     4
 74
     0
 42
0.000000001
 43
0.00000001
 40
0.0
 40
0.0
 40
0.0
 40
0.0
 40
1.0
 40
1.0
 40
1.0
 40
1.0
 10
23.43104145504208
 20
54.82773287989274
 30
0.0
 10
23.44407204396331
 20
54.82773295693111
 30
0.0
 10
23.45310661132665
 20
54.82773313909417
 30
0.0
 10
23.45813839043035
 20
54.8277333982089
 30
0.0
  0
SPLINE
  5
358
330
1B
100
AcDbEntity
 67
     1
  8
0
  6
Continuous
 62
     7
370
    15
100
AcDbSpline
210
0.0
220
0.0
230
1.0
 70
     8
 71
     3
 72
     8
 73
     4
 74
     0
 42
0.000000001
 43
0.00000001
 40
0.0
 40
0.0
 40
0.0
 40
0.0
 40
1.0
 40
1.0
 40
1.0
 40
1.0
 10
23.45813709295061
 20
54.53863571261297
 30
0.0
 10
23.45310462521209
 20
54.53863545350135
 30
0.0
 10
23.44406936847075
 20
54.53863527134395
 30
0.0
 10
23.43103808994456
 20
54.53863519431368
 30
0.0
  0
SPLINE
  5
35A
330
1B
100
AcDbEntity
 67
     1
  8
0
  6
Continuous
 62
     7
370
    15
100
AcDbSpline
210
0.0
220
0.0
230
1.0
 70
     8
 71
     3
 72
     8
 73
     4
 74
     0
 42
0.000000001
 43
0.00000001
 40
0.0
 40
0.0
 40
0.0
 40
0.0
 40
1.0
 40
1.0
 40
1.0
 40
1.0
 10
23.43103332534566
 20
54.12933167651512
 30
0.0
 10
23.45404967309411
 20
54.12933181253865
 30
0.0
 10
23.46459860636278
 20
54.12933227654548
 30
0.0
 10
23.4626554895694
 20
54.12933291307942
 30
0.0
  0
SPLINE
  5
35B
330
1B
100
AcDbEntity
 67
     1
  8
0
  6
Continuous
 62
     7
370
    15
100
AcDbSpline
210
0.0
220
0.0
230
1.0
 70
     8
 71
     3
 72
     9
 73
     5
 74
     0
 42
0.000000001
 43
0.00000001
 40
0.0
 40
0.0
 40
0.0
 40
0.0
 40
0.5311635072653798
 40
1.0
 40
1.0
 40
1.0
 40
1.0
 10
23.46104838568336
 20
53.84529445576602
 30
0.0
 10
23.45934174893176
 20
53.84529408996785
 30
0.0
 10
23.45612873311223
 20
53.84529340129429
 30
0.0
 10
23.42487269334306
 20
53.84529333010924
 30
0.0
 10
23.41021872128091
 20
53.84529329673515
 30
0.0
  0
LINE
  5
366
330
1B
100
AcDbEntity
 67
     1
  8
0
  6
Continuous
 62
     7
370
    15
100
AcDbLine
 10
-60.1325918541
 20
-106.8573032049
 30
0.0
 11
76.8674081459
 21
-106.8573032049
 31
0.0
  0
LINE
  5
367
330
1B
100
AcDbEntity
 67
     1
  8
0
  6
Continuous
 62
     7
370
    15
100
AcDbLine
 10
11.8674081459
 20
1349.4823507838
 30
0.0
 11
11.8674081459
 21
1349.8189454528
 31
0.0
  0
LINE
  5
368
330
1B
100
AcDbEntity
 67
     1
  8
0
  6
Continuous
 62
     7
370
    15
100
AcDbLine
 10
3.8674081459
 20
1349.8421467842
 30
0.0
 11
3.8674081459
 21
1349.4823507838
 31
0.0
  0
LINE
  5
369
330
1B
100
AcDbEntity
 67
     1
  8
0
  6
Continuous
 62
     7
370
    15
100
AcDbLine
 10
31.1400746503
 20
50.1477748447
 30
0.0
 11
-14.4052583585
 21
50.1477748447
 31
0.0
  0
LINE
  5
36A
330
1B
100
AcDbEntity
 67
     1
  8
0
  6
Continuous
 62
     7
370
    15
100
AcDbLine
 10
23.3674081459
 20
57.0475392275
 30
0.0
 11
23.3674081459
 21
59.2475392745
 31
0.0
  0
LINE
  5
36B
330
1B
100
AcDbEntity
 67
     1
  8
0
  6
Continuous
 62
     7
370
    15
100
AcDbLine
 10
23.3674081459
 20
50.1477748447
 30
0.0
 11
23.3674081459
 21
52.2475394983
 31
0.0
  0
LINE
  5
36C
330
1B
100
AcDbEntity
 67
     1
  8
0
  6
Continuous
 62
     7
370
    15
100
AcDbLine
 10
-6.6325918541
 20
59.2475392745
 30
0.0
 11
-6.6325918541
 21
50.1477748447
 31
0.0
  0
LINE
  5
36D
330
1B
100
AcDbEntity
 67
     1
  8
0
  6
Continuous
 62
     7
370
    15
100
AcDbLine
 10
20.8674081459
 20
60.9475392745
 30
0.0
 11
20.8674081459
 21
61.0377184472
 31
0.0
  0
LINE
  5
36E
330
1B
100
AcDbEntity
 67
     1
  8
0
  6
Continuous
 62
     7
370
    15
100
AcDbLine
 10
-4.1325918541
 20
61.0377184472
 30
0.0
 11
-4.1325918541
 21
60.9475392745
 31
0.0
  0
LINE
  5
36F
330
1B
100
AcDbEntity
 67
     1
  8
0
  6
Continuous
 62
     7
370
    15
100
AcDbLine
 10
23.4111778854
 20
55.6254218614
 30
0.0
 11
23.4111779742
 21
57.04753925
 31
0.0
  0
LINE
  5
370
330
1B
100
AcDbEntity
 67
     1
  8
0
  6
Continuous
 62
     7
370
    15
100
AcDbLine
 10
23.4111776744
 20
52.24753925
 30
0.0
 11
23.4111777742
 21
53.8452952062
 31
0.0
  0
LINE
  5
371
330
1B
100
AcDbEntity
 67
     1
  8
0
  6
Continuous
 62
     7
370
    15
100
AcDbLine
 10
15.8674081459
 20
69.6475392745
 30
0.0
 11
15.8674081459
 21
77.6475392745
 31
0.0
  0
LINE
  5
372
330
1B
100
AcDbEntity
 67
     1
  8
0
  6
Continuous
 62
     7
370
    15
100
AcDbLine
 10
0.8674081459
 20
77.6475392745
 30
0.0
 11
0.8674081459
 21
69.6475392745
 31
0.0
  0
LINE
  5
373
330
1B
100
AcDbEntity
 67
     1
  8
0
  6
Continuous
 62
     7
370
    15
100
AcDbLine
 10
15.8674081459
 20
77.6475392745
 30
0.0
 11
14.3674081459
 21
86.1475392745
 31
0.0
  0
LINE
  5
374
330
1B
100
AcDbEntity
 67
     1
  8
0
  6
Continuous
 62
     7
370
    15
100
AcDbLine
 10
2.3674081459
 20
86.1475392745
 30
0.0
 11
0.8674081459
 21
77.6475392745
 31
0.0
  0
LINE
  5
375
330
1B
100
AcDbEntity
 67
     1
  8
0
  6
Continuous
 62
     7
370
    15
100
AcDbLine
 10
0.8674081459
 20
1294.6475392745
 30
0.0
 11
2.3674081459
 21
1286.1475392745
 31
0.0
  0
LINE
  5
376
330
1B
100
AcDbEntity
 67
     1
  8
0
  6
Continuous
 62
     7
370
    15
100
AcDbLine
 10
14.3674081459
 20
1286.1475392745
 30
0.0
 11
15.8674081459
 21
1294.6475392745
 31
0.0
  0
LINE
  5
377
330
1B
100
AcDbEntity
 67
     1
  8
0
  6
Continuous
 62
     7
370
    15
100
AcDbLine
 10
0.8674081459
 20
1302.6475392745
 30
0.0
 11
0.8674081459
 21
1294.6475392745
 31
0.0
  0
LINE
  5
378
330
1B
100
AcDbEntity
 67
     1
  8
0
  6
Continuous
 62
     7
370
    15
100
AcDbLine
 10
15.8674081459
 20
1294.6475392745
 30
0.0
 11
15.8674081459
 21
1302.6475392745
 31
0.0
  0
LINE
  5
379
330
1B
100
AcDbEntity
 67
     1
  8
0
  6
Continuous
 62
     7
370
    15
100
AcDbLine
 10
23.4628821514
 20
55.1626476102
 30
0.0
 11
23.4628821513
 21
55.457560905
 31
0.0
  0
LINE
  5
37A
330
1B
100
AcDbEntity
 67
     1
  8
0
  6
Continuous
 62
     7
370
    15
100
AcDbLine
 10
23.4628821521
 20
53.8452944244
 30
0.0
 11
23.462882152
 21
54.1293327828
 31
0.0
  0
LINE
  5
37B
330
1B
100
AcDbEntity
 67
     1
  8
0
  6
Continuous
 62
     7
370
    15
100
AcDbLine
 10
76.8674081445
 20
-102.8573032049
 30
0.0
 11
-60.1325918541
 21
-102.8573032049
 31
0.0
  0
LINE
  5
37C
330
1B
100
AcDbEntity
 67
     1
  8
0
  6
Continuous
 62
     7
370
    15
100
AcDbLine
 10
8.8683025269
 20
1350.8342616574
 30
0.0
 11
8.614688394
 21
1350.4971831919
 31
0.0
  0
LINE
  5
37D
330
1B
100
AcDbEntity
 67
     1
  8
0
  6
Continuous
 62
     7
370
    15
100
AcDbLine
 10
8.614688394
 20
1350.4971831919
 30
0.0
 11
7.7773328496
 21
1350.7067964873
 31
0.0
  0
LINE
  5
37E
330
1B
100
AcDbEntity
 67
     1
  8
0
  6
Continuous
 62
     7
370
    15
100
AcDbLine
 10
8.614688394
 20
1350.4971831919
 30
0.0
 11
8.5372184709
 21
1350.214324638
 31
0.0
  0
LINE
  5
37F
330
1B
100
AcDbEntity
 67
     1
  8
0
  6
Continuous
 62
     7
370
    15
100
AcDbLine
 10
6.8800623375
 20
1349.8188047233
 30
0.0
 11
6.785707541
 21
1349.4742960387
 31
0.0
  0
LINE
  5
380
330
1B
100
AcDbEntity
 67
     1
  8
0
  6
Continuous
 62
     7
370
    15
100
AcDbLine
 10
5.8171240009
 20
1349.1278406683
 30
0.0
 11
6.785707541
 21
1349.4742960387
 31
0.0
  0
LINE
  5
381
330
1B
100
AcDbEntity
 67
     1
  8
0
  6
Continuous
 62
     7
370
    15
100
AcDbLine
 10
7.0815746978
 20
1349.4002322911
 30
0.0
 11
6.785707541
 21
1349.4742960387
 31
0.0
  0
LINE
  5
382
330
1B
100
AcDbEntity
 67
     1
  8
0
  6
Continuous
 62
     7
370
    15
100
AcDbLine
 10
9.6567922945
 20
1348.1666652997
 30
0.0
 11
8.6882087544
 21
1348.9980472679
 31
0.0
  0
LINE
  5
383
330
1B
100
AcDbEntity
 67
     1
  8
0
  6
Continuous
 62
     7
370
    15
100
AcDbLine
 10
8.6882087544
 20
1348.9980472679
 30
0.0
 11
8.3923415976
 21
1349.0721110156
 31
0.0
  0
LINE
  5
384
330
1B
100
AcDbEntity
 67
     1
  8
0
  6
Continuous
 62
     7
370
    15
100
AcDbLine
 10
8.6882087544
 20
1348.9980472679
 30
0.0
 11
8.8019492416
 21
1349.4133370788
 31
0.0
  0
LINE
  5
385
330
1B
100
AcDbEntity
 67
     1
  8
0
  6
Continuous
 62
     7
370
    15
100
AcDbLine
 10
7.8629229138
 20
1347.1634148059
 30
0.0
 11
8.1165370466
 21
1348.67833061
 31
0.0
  0
LINE
  5
386
330
1B
100
AcDbEntity
 67
     1
  8
0
  6
Continuous
 62
     7
370
    15
100
AcDbLine
 10
8.1940069698
 20
1348.961189164
 30
0.0
 11
8.1165370466
 21
1348.67833061
 31
0.0
  0
LINE
  5
387
330
1B
100
AcDbEntity
 67
     1
  8
0
  6
Continuous
 62
     7
370
    15
100
AcDbLine
 10
7.1201278979
 20
1348.9277594298
 30
0.0
 11
8.1165370466
 21
1348.67833061
 31
0.0
  0
LINE
  5
388
330
1B
100
AcDbEntity
 67
     1
  8
0
  6
Continuous
 62
     7
370
    15
100
AcDbLine
 10
-21.4941320147
 20
1324.6384245012
 30
0.0
 11
38.2289483066
 21
1324.6384245012
 31
0.0
  0
LINE
  5
389
330
1B
100
AcDbEntity
 67
     1
  8
0
  6
Continuous
 62
     7
370
    15
100
AcDbLine
 10
-41.6325918541
 20
1357.6475392745
 30
0.0
 11
58.3674081459
 21
1357.6475392745
 31
0.0
  0
LINE
  5
38A
330
1B
100
AcDbEntity
 67
     1
  8
0
  6
Continuous
 62
     7
370
    15
100
AcDbLine
 10
-20.2432699851
 20
1322.7825163562
 30
0.0
 11
36.978086277
 21
1322.7825163562
 31
0.0
  0
LINE
  5
38B
330
1B
100
AcDbEntity
 67
     1
  8
0
  6
Continuous
 62
     7
370
    15
100
AcDbLine
 10
-14.3632259813
 20
50.1475392745
 30
0.0
 11
31.0980422732
 21
50.1475392745
 31
0.0
  0
LINE
  5
38C
330
1B
100
AcDbEntity
 67
     1
  8
0
  6
Continuous
 62
     7
370
    15
100
AcDbLine
 10
22.6674081459
 20
59.9475392745
 30
0.0
 11
-5.9325918184
 21
59.9475392745
 31
0.0
  0
LINE
  5
38D
330
1B
100
AcDbEntity
 67
     1
  8
0
  6
Continuous
 62
     7
370
    15
100
AcDbLine
 10
20.8674081459
 20
61.0377184472
 30
0.0
 11
-4.1325918541
 21
61.0377184472
 31
0.0
  0
LINE
  5
38E
330
1B
100
AcDbEntity
 67
     1
  8
0
  6
Continuous
 62
     7
370
    15
100
AcDbLine
 10
23.3603871611
 20
54.1293328137
 30
0.0
 11
23.3604069899
 21
55.4575605145
 31
0.0
  0
LINE
  5
38F
330
1B
100
AcDbEntity
 67
     1
  8
0
  6
Continuous
 62
     7
370
    15
100
AcDbLine
 10
23.1228898568
 20
53.8452987279
 30
0.0
 11
23.122946464
 21
55.4575652078
 31
0.0
  0
LINE
  5
390
330
1B
100
AcDbEntity
 67
     1
  8
0
  6
Continuous
 62
     7
370
    15
100
AcDbLine
 10
23.2256140548
 20
54.1190221665
 30
0.0
 11
23.3738839954
 21
54.1190192612
 31
0.0
  0
LINE
  5
391
330
1B
100
AcDbEntity
 67
     1
  8
0
  6
Continuous
 62
     7
370
    15
100
AcDbLine
 10
23.1763962824
 20
55.4575638544
 30
0.0
 11
23.1763538381
 21
54.1190231406
 31
0.0
  0
LINE
  5
392
330
1B
100
AcDbEntity
 67
     1
  8
0
  6
Continuous
 62
     7
370
    15
100
AcDbLine
 10
21.8825397146
 20
57.0475992046
 30
0.0
 11
21.4265791683
 21
57.0476211395
 31
0.0
  0
LINE
  5
393
330
1B
100
AcDbEntity
 67
     1
  8
0
  6
Continuous
 62
     7
370
    15
100
AcDbLine
 10
22.3454622277
 20
54.3390820571
 30
0.0
 11
22.3455371776
 21
55.4575942084
 31
0.0
  0
LINE
  5
394
330
1B
100
AcDbEntity
 67
     1
  8
0
  6
Continuous
 62
     7
370
    15
100
AcDbLine
 10
21.875061338
 20
53.859905863
 30
0.0
 11
21.8751892531
 21
55.4576175289
 31
0.0
  0
LINE
  5
395
330
1B
100
AcDbEntity
 67
     1
  8
0
  6
Continuous
 62
     7
370
    15
100
AcDbLine
 10
23.0260270073
 20
54.1954147815
 30
0.0
 11
23.0260513874
 21
54.7968154805
 31
0.0
  0
LINE
  5
396
330
1B
100
AcDbEntity
 67
     1
  8
0
  6
Continuous
 62
     7
370
    15
100
AcDbLine
 10
23.0748415084
 20
54.7968135015
 30
0.0
 11
22.8196962543
 21
54.7968222953
 31
0.0
  0
LINE
  5
397
330
1B
100
AcDbEntity
 67
     1
  8
0
  6
Continuous
 62
     7
370
    15
100
AcDbLine
 10
22.8196963009
 20
54.7968222953
 30
0.0
 11
22.8196811767
 21
54.496121946
 31
0.0
  0
LINE
  5
398
330
1B
100
AcDbEntity
 67
     1
  8
0
  6
Continuous
 62
     7
370
    15
100
AcDbLine
 10
22.8196811766
 20
54.496121946
 30
0.0
 11
22.9639796151
 21
54.4961170517
 31
0.0
  0
LINE
  5
399
330
1B
100
AcDbEntity
 67
     1
  8
0
  6
Continuous
 62
     7
370
    15
100
AcDbLine
 10
22.9639796259
 20
54.4961170517
 30
0.0
 11
22.9639761165
 21
54.4159774874
 31
0.0
  0
LINE
  5
39A
330
1B
100
AcDbEntity
 67
     1
  8
0
  6
Continuous
 62
     7
370
    15
100
AcDbLine
 10
21.4279822065
 20
57.0476211417
 30
0.0
 11
21.2810080501
 21
57.047635626
 31
0.0
  0
LINE
  5
39B
330
1B
100
AcDbEntity
 67
     1
  8
0
  6
Continuous
 62
     7
370
    15
100
AcDbLine
 10
20.1074542234
 20
54.6477102853
 30
0.0
 11
19.9488072693
 21
54.647731918
 31
0.0
  0
LINE
  5
39C
330
1B
100
AcDbEntity
 67
     1
  8
0
  6
Continuous
 62
     7
370
    15
100
AcDbLine
 10
21.4275476918
 20
52.2476211609
 30
0.0
 11
21.2809372061
 21
52.2476356112
 31
0.0
  0
LINE
  5
39D
330
1B
100
AcDbEntity
 67
     1
  8
0
  6
Continuous
 62
     7
370
    15
100
AcDbLine
 10
21.2719148107
 20
55.4576503734
 30
0.0
 11
21.2287460589
 21
55.4576548804
 31
0.0
  0
LINE
  5
39E
330
1B
100
AcDbEntity
 67
     1
  8
0
  6
Continuous
 62
     7
370
    15
100
AcDbLine
 10
20.8560603973
 20
53.8599651197
 30
0.0
 11
20.8141882292
 21
53.8599699907
 31
0.0
  0
LINE
  5
39F
330
1B
100
AcDbEntity
 67
     1
  8
0
  6
Continuous
 62
     7
370
    15
100
AcDbLine
 10
21.4625699485
 20
54.5621264407
 30
0.0
 11
21.4188067461
 21
54.5621307655
 31
0.0
  0
LINE
  5
3A0
330
1B
100
AcDbEntity
 67
     1
  8
0
  6
Continuous
 62
     7
370
    15
100
AcDbLine
 10
21.3982452566
 20
55.4576427784
 30
0.0
 11
21.3546826179
 21
55.4576471658
 31
0.0
  0
LINE
  5
3A1
330
1B
100
AcDbEntity
 67
     1
  8
0
  6
Continuous
 62
     7
370
    15
100
AcDbLine
 10
21.6302943283
 20
53.8599177067
 30
0.0
 11
21.5860081732
 21
53.8599218617
 31
0.0
  0
LINE
  5
3A2
330
1B
100
AcDbEntity
 67
     1
  8
0
  6
Continuous
 62
     7
370
    15
100
AcDbLine
 10
15.8674081459
 20
77.6475392745
 30
0.0
 11
0.8674081459
 21
77.6475392745
 31
0.0
  0
LINE
  5
3A3
330
1B
100
AcDbEntity
 67
     1
  8
0
  6
Continuous
 62
     7
370
    15
100
AcDbLine
 10
15.8674081459
 20
69.6475392745
 30
0.0
 11
0.8674081459
 21
69.6475392745
 31
0.0
  0
LINE
  5
3A4
330
1B
100
AcDbEntity
 67
     1
  8
0
  6
Continuous
 62
     7
370
    15
100
AcDbLine
 10
14.3674081459
 20
86.1475392745
 30
0.0
 11
2.3674081459
 21
86.1475392745
 31
0.0
  0
LINE
  5
3A5
330
1B
100
AcDbEntity
 67
     1
  8
0
  6
Continuous
 62
     7
370
    15
100
AcDbLine
 10
2.3674081459
 20
1286.1475392745
 30
0.0
 11
14.3674081459
 21
1286.1475392745
 31
0.0
  0
LINE
  5
3A6
330
1B
100
AcDbEntity
 67
     1
  8
0
  6
Continuous
 62
     7
370
    15
100
AcDbLine
 10
0.8674081459
 20
1294.6475392745
 30
0.0
 11
15.8674081459
 21
1294.6475392745
 31
0.0
  0
LINE
  5
3A7
330
1B
100
AcDbEntity
 67
     1
  8
0
  6
Continuous
 62
     7
370
    15
100
AcDbLine
 10
0.8674081459
 20
1302.6475392745
 30
0.0
 11
15.8674081459
 21
1302.6475392745
 31
0.0
  0
LINE
  5
3A8
330
1B
100
AcDbEntity
 67
     1
  8
0
  6
Continuous
 62
     7
370
    15
100
AcDbLine
 10
21.9203798589
 20
55.4576136919
 30
0.0
 11
21.8751892512
 21
55.4576175289
 31
0.0
  0
LINE
  5
3A9
330
1B
100
AcDbEntity
 67
     1
  8
0
  6
Continuous
 62
     7
370
    15
100
AcDbLine
 10
21.9202515532
 20
53.8599020258
 30
0.0
 11
21.9203798589
 21
55.4576136919
 31
0.0
  0
LINE
  5
3AA
330
1B
100
AcDbEntity
 67
     1
  8
0
  6
Continuous
 62
     7
370
    15
100
AcDbLine
 10
21.9202515532
 20
53.8599020258
 30
0.0
 11
21.8750613386
 21
53.859905863
 31
0.0
  0
LINE
  5
3AB
330
1B
100
AcDbEntity
 67
     1
  8
0
  6
Continuous
 62
     7
370
    15
100
AcDbLine
 10
22.0418832384
 20
55.4576074942
 30
0.0
 11
21.9963137939
 21
55.4576111872
 31
0.0
  0
LINE
  5
3AC
330
1B
100
AcDbEntity
 67
     1
  8
0
  6
Continuous
 62
     7
370
    15
100
AcDbLine
 10
22.3921236953
 20
54.3390788253
 30
0.0
 11
22.3921988749
 21
55.4575909767
 31
0.0
  0
LINE
  5
3AD
330
1B
100
AcDbEntity
 67
     1
  8
0
  6
Continuous
 62
     7
370
    15
100
AcDbLine
 10
22.4887273658
 20
55.4575868086
 30
0.0
 11
22.488624844
 21
53.8598751406
 31
0.0
  0
LINE
  5
3AE
330
1B
100
AcDbEntity
 67
     1
  8
0
  6
Continuous
 62
     7
370
    15
100
AcDbLine
 10
22.0418462573
 20
54.9784079783
 30
0.0
 11
22.0417599368
 21
53.8598958277
 31
0.0
  0
LINE
  5
3AF
330
1B
100
AcDbEntity
 67
     1
  8
0
  6
Continuous
 62
     7
370
    15
100
AcDbLine
 10
22.3920914856
 20
53.859879309
 30
0.0
 11
22.3454301173
 21
53.8598825408
 31
0.0
  0
LINE
  5
3B0
330
1B
100
AcDbEntity
 67
     1
  8
0
  6
Continuous
 62
     7
370
    15
100
AcDbLine
 10
22.3921988749
 20
55.4575909767
 30
0.0
 11
22.3455371767
 21
55.4575942084
 31
0.0
  0
LINE
  5
3B1
330
1B
100
AcDbEntity
 67
     1
  8
0
  6
Continuous
 62
     7
370
    15
100
AcDbLine
 10
22.4887273658
 20
55.4575868086
 30
0.0
 11
22.4417647
 21
55.4575898983
 31
0.0
  0
LINE
  5
3B2
330
1B
100
AcDbEntity
 67
     1
  8
0
  6
Continuous
 62
     7
370
    15
100
AcDbLine
 10
22.8678409654
 20
54.796819858
 30
0.0
 11
22.8678258411
 21
54.4961195086
 31
0.0
  0
LINE
  5
3B3
330
1B
100
AcDbEntity
 67
     1
  8
0
  6
Continuous
 62
     7
370
    15
100
AcDbLine
 10
23.074817053
 20
54.1954128025
 30
0.0
 11
23.0748415087
 21
54.7968135015
 31
0.0
  0
LINE
  5
3B4
330
1B
100
AcDbEntity
 67
     1
  8
0
  6
Continuous
 62
     7
370
    15
100
AcDbLine
 10
23.0125755969
 20
54.4961149234
 30
0.0
 11
23.0125720875
 21
54.4159753592
 31
0.0
  0
LINE
  5
3B5
330
1B
100
AcDbEntity
 67
     1
  8
0
  6
Continuous
 62
     7
370
    15
100
AcDbLine
 10
23.0125720875
 20
54.4159753592
 30
0.0
 11
22.9639761165
 21
54.4159774874
 31
0.0
  0
LINE
  5
3B6
330
1B
100
AcDbEntity
 67
     1
  8
0
  6
Continuous
 62
     7
370
    15
100
AcDbLine
 10
23.0168002976
 20
55.007678803
 30
0.0
 11
22.9681911442
 21
55.0076809215
 31
0.0
  0
LINE
  5
3B7
330
1B
100
AcDbEntity
 67
     1
  8
0
  6
Continuous
 62
     7
370
    15
100
AcDbLine
 10
23.1720396384
 20
55.4575634898
 30
0.0
 11
23.122946462
 21
55.4575652078
 31
0.0
  0
LINE
  5
3B8
330
1B
100
AcDbEntity
 67
     1
  8
0
  6
Continuous
 62
     7
370
    15
100
AcDbLine
 10
23.1719828582
 20
53.8452970097
 30
0.0
 11
23.1720396384
 21
55.4575634898
 31
0.0
  0
LINE
  5
3B9
330
1B
100
AcDbEntity
 67
     1
  8
0
  6
Continuous
 62
     7
370
    15
100
AcDbLine
 10
23.1719828582
 20
53.8452970097
 30
0.0
 11
23.1228898574
 21
53.8452987279
 31
0.0
  0
LINE
  5
3BA
330
1B
100
AcDbEntity
 67
     1
  8
0
  6
Continuous
 62
     7
370
    15
100
AcDbLine
 10
23.2256566327
 20
55.4575623003
 30
0.0
 11
23.1763962828
 21
55.4575638544
 31
0.0
  0
LINE
  5
3BB
330
1B
100
AcDbEntity
 67
     1
  8
0
  6
Continuous
 62
     7
370
    15
100
AcDbLine
 10
23.2256566327
 20
55.4575623003
 30
0.0
 11
23.2256140548
 21
54.1190215863
 31
0.0
  0
LINE
  5
3BC
330
1B
100
AcDbEntity
 67
     1
  8
0
  6
Continuous
 62
     7
370
    15
100
AcDbLine
 10
23.3738839954
 20
54.1190192612
 30
0.0
 11
23.3738786644
 21
53.8452934949
 31
0.0
  0
LINE
  5
3BD
330
1B
100
AcDbEntity
 67
     1
  8
0
  6
Continuous
 62
     7
370
    15
100
AcDbLine
 10
23.4102428628
 20
55.4575597776
 30
0.0
 11
23.3604069878
 21
55.4575605145
 31
0.0
  0
LINE
  5
3BE
330
1B
100
AcDbEntity
 67
     1
  8
0
  6
Continuous
 62
     7
370
    15
100
AcDbLine
 10
23.4102187213
 20
53.8452932967
 30
0.0
 11
23.4102428628
 21
55.4575597776
 31
0.0
  0
LINE
  5
3BF
330
1B
100
AcDbEntity
 67
     1
  8
0
  6
Continuous
 62
     7
370
    15
100
AcDbLine
 10
23.4102187213
 20
53.8452932967
 30
0.0
 11
23.3603829214
 21
53.8452940338
 31
0.0
  0
LINE
  5
3C0
330
1B
100
AcDbEntity
 67
     1
  8
0
  6
Continuous
 62
     7
370
    15
100
AcDbLine
 10
23.4628194204
 20
55.4575609806
 30
0.0
 11
23.4128196164
 21
55.4575609551
 31
0.0
  0
LINE
  5
3C1
330
1B
100
AcDbEntity
 67
     1
  8
0
  6
Continuous
 62
     7
370
    15
100
AcDbLine
 10
23.4310453532
 20
55.1626465087
 30
0.0
 11
23.431041455
 21
54.8277328799
 31
0.0
  0
LINE
  5
3C2
330
1B
100
AcDbEntity
 67
     1
  8
0
  6
Continuous
 62
     7
370
    15
100
AcDbLine
 10
23.4581383904
 20
54.8277333982
 30
0.0
 11
23.458137093
 21
54.5386357126
 31
0.0
  0
LINE
  5
3C3
330
1B
100
AcDbEntity
 67
     1
  8
0
  6
Continuous
 62
     7
370
    15
100
AcDbLine
 10
23.4310380899
 20
54.5386351943
 30
0.0
 11
23.4310333253
 21
54.1293316765
 31
0.0
  0
LINE
  5
3C4
330
1B
100
AcDbEntity
 67
     1
  8
0
  6
Continuous
 62
     7
370
    15
100
AcDbLine
 10
23.4581383904
 20
54.8277333982
 30
0.0
 11
23.431041455
 21
54.8277335185
 31
0.0
  0
LINE
  5
3C5
330
1B
100
AcDbEntity
 67
     1
  8
0
  6
Continuous
 62
     7
370
    15
100
AcDbLine
 10
23.4626554896
 20
54.1293329131
 30
0.0
 11
23.4310333254
 21
54.1293328824
 31
0.0
  0
LINE
  5
3C6
330
1B
100
AcDbEntity
 67
     1
  8
0
  6
Continuous
 62
     7
370
    15
100
AcDbLine
 10
23.4531746327
 20
55.1626497269
 30
0.0
 11
23.4531767773
 21
54.8277334202
 31
0.0
  0
LINE
  5
3C7
330
1B
100
AcDbEntity
 67
     1
  8
0
  6
Continuous
 62
     7
370
    15
100
AcDbLine
 10
23.4531786293
 20
54.538637146
 30
0.0
 11
23.4531812491
 21
54.1293329039
 31
0.0
  0
LINE
  5
3C8
330
1B
100
AcDbEntity
 67
     1
  8
0
  6
Continuous
 62
     7
370
    15
100
AcDbLine
 10
23.4531830678
 20
53.8452954765
 30
0.0
 11
23.4126564742
 21
53.8452952186
 31
0.0
  0
LINE
  5
3C9
330
1B
100
AcDbEntity
 67
     1
  8
0
  6
Continuous
 62
     8
370
    15
100
AcDbLine
 10
50.9599015247
 20
-45.010673161
 30
0.0
 11
-34.2250852328
 21
-45.010673161
 31
0.0
  0
LINE
  5
3CA
330
1B
100
AcDbEntity
 67
     1
  8
0
  6
Continuous
 62
     8
370
    15
100
AcDbLine
 10
48.5290227899
 20
-39.022221735
 30
0.0
 11
-31.794206498
 21
-39.022221735
 31
0.0
  0
LINE
  5
3CB
330
1B
100
AcDbEntity
 67
     1
  8
0
  6
Continuous
 62
     8
370
    15
100
AcDbLine
 10
34.7360705732
 20
47.4614069817
 30
0.0
 11
-18.0012542813
 21
47.4614069817
 31
0.0
  0
LINE
  5
3CC
330
1B
100
AcDbEntity
 67
     1
  8
0
  6
Continuous
 62
     8
370
    15
100
AcDbLine
 10
23.3674081459
 20
59.2475392745
 30
0.0
 11
-6.6325918541
 21
59.2475392745
 31
0.0
  0
LINE
  5
3CD
330
1B
100
AcDbEntity
 67
     1
  8
0
  6
Continuous
 62
     8
370
    15
100
AcDbLine
 10
20.8674081459
 20
60.9475392745
 30
0.0
 11
-4.1325918541
 21
60.9475392745
 31
0.0
  0
ARC
  5
3CE
330
1B
100
AcDbEntity
 67
     1
  8
0
  6
Continuous
 62
     7
370
    15
100
AcDbCircle
 10
76.8674081459
 20
-104.8573032049
 30
0.0
 40
2.000000000000028
100
AcDbArc
 50
270.0
 51
90.0
  0
ARC
  5
3CF
330
1B
100
AcDbEntity
 67
     1
  8
0
  6
Continuous
 62
     7
370
    15
100
AcDbCircle
 10
-60.1325918541
 20
-104.8573032049
 30
0.0
 40
2.000000000000028
100
AcDbArc
 50
90.0
 51
270.0
  0
ARC
  5
3D0
330
1B
100
AcDbEntity
 67
     1
  8
0
  6
Continuous
 62
     7
370
    15
100
AcDbCircle
 10
35.0006186615
 20
-108.5362819778
 30
0.0
 40
93.95584630669237
100
AcDbArc
 50
137.4586642148
 51
176.5347556573
  0
ARC
  5
3D1
330
1B
100
AcDbEntity
 67
     1
  8
0
  6
Continuous
 62
     7
370
    15
100
AcDbCircle
 10
-18.2658023696
 20
-108.5362819778
 30
0.0
 40
93.95584630669241
100
AcDbArc
 50
3.4652443427
 51
42.5413357852
  0
ARC
  5
3D2
330
1B
100
AcDbEntity
 67
     1
  8
0
  6
Continuous
 62
     7
370
    15
100
AcDbCircle
 10
-5.5110985554
 20
1357.0371512221
 30
0.0
 40
36.12665015884692
100
AcDbArc
 50
179.0318968613
 51
243.7418217393
  0
ARC
  5
3D3
330
1B
100
AcDbEntity
 67
     1
  8
0
  6
Continuous
 62
     7
370
    15
100
AcDbCircle
 10
22.2459148473
 20
1357.0371512221
 30
0.0
 40
36.12665015884734
100
AcDbArc
 50
296.2581782607
 51
0.9681031387
  0
ARC
  5
3D4
330
1B
100
AcDbEntity
 67
     1
  8
0
  6
Continuous
 62
     7
370
    15
100
AcDbCircle
 10
57.7752066515
 20
-38.7565452418
 30
0.0
 40
9.249999999999748
100
AcDbArc
 50
181.6458632914
 51
222.5413357852
  0
ARC
  5
3D5
330
1B
100
AcDbEntity
 67
     1
  8
0
  6
Continuous
 62
     7
370
    15
100
AcDbCircle
 10
-41.0403903596
 20
-38.7565452418
 30
0.0
 40
9.24999999999937
100
AcDbArc
 50
317.4586642148
 51
358.3541367086
  0
ARC
  5
3D6
330
1B
100
AcDbEntity
 67
     1
  8
0
  6
Continuous
 62
     7
370
    15
100
AcDbCircle
 10
307.3324587962
 20
-48.7665643222
 30
0.0
 40
339.2666316130546
100
AcDbArc
 50
163.5227126283
 51
178.3541367086
  0
ARC
  5
3D7
330
1B
100
AcDbEntity
 67
     1
  8
0
  6
Continuous
 62
     7
370
    15
100
AcDbCircle
 10
-290.5976425043
 20
-48.7665643222
 30
0.0
 40
339.2666316130556
100
AcDbArc
 50
1.6458632914
 51
16.4772873717
  0
ARC
  5
3D8
330
1B
100
AcDbEntity
 67
     1
  8
0
  6
Continuous
 62
     7
370
    15
100
AcDbCircle
 10
-22.2432694152
 20
1322.7840261742
 30
0.0
 40
2.000000000000283
100
AcDbArc
 50
359.9567468962
 51
68.0023416074
  0
ARC
  5
3D9
330
1B
100
AcDbEntity
 67
     1
  8
0
  6
Continuous
 62
     7
370
    15
100
AcDbCircle
 10
38.9780857071
 20
1322.7840261742
 30
0.0
 40
2.000000000000404
100
AcDbArc
 50
111.9976583926
 51
180.0432531038
  0
ARC
  5
3DA
330
1B
100
AcDbEntity
 67
     1
  8
0
  6
Continuous
 62
     7
370
    15
100
AcDbCircle
 10
7.9119763627
 20
1331.4209017291
 30
0.0
 40
29.45062985331599
100
AcDbArc
 50
197.0566752071
 51
257.6886343053
  0
ARC
  5
3DB
330
1B
100
AcDbEntity
 67
     1
  8
0
  6
Continuous
 62
     7
370
    15
100
AcDbCircle
 10
8.8228399291
 20
1331.4209017291
 30
0.0
 40
29.45062985331565
100
AcDbArc
 50
282.3113656947
 51
342.9433247929
  0
ARC
  5
3DC
330
1B
100
AcDbEntity
 67
     1
  8
0
  6
Continuous
 62
     7
370
    15
100
AcDbCircle
 10
31.1400746503
 20
46.3977748447
 30
0.0
 40
3.750000000000185
100
AcDbArc
 50
16.4772873717
 51
90.0
  0
ARC
  5
3DD
330
1B
100
AcDbEntity
 67
     1
  8
0
  6
Continuous
 62
     7
370
    15
100
AcDbCircle
 10
-14.4052583585
 20
46.3977748447
 30
0.0
 40
3.750000000000185
100
AcDbArc
 50
90.0
 51
163.5227126283
  0
ARC
  5
3DE
330
1B
100
AcDbEntity
 67
     1
  8
0
  6
Continuous
 62
     7
370
    15
100
AcDbCircle
 10
22.6674081459
 20
59.2475392745
 30
0.0
 40
0.6999999999999744
100
AcDbArc
 50
360.0
 51
90.0
  0
ARC
  5
3DF
330
1B
100
AcDbEntity
 67
     1
  8
0
  6
Continuous
 62
     7
370
    15
100
AcDbCircle
 10
-5.9325918541
 20
59.2475392745
 30
0.0
 40
0.6999999999999744
100
AcDbArc
 50
90.0
 51
180.0
  0
ARC
  5
3E0
330
1B
100
AcDbEntity
 67
     1
  8
0
  6
Continuous
 62
     7
370
    15
100
AcDbCircle
 10
21.8674081459
 20
60.9475392745
 30
0.0
 40
1.000000000000014
100
AcDbArc
 50
180.0
 51
270.0
  0
ARC
  5
3E1
330
1B
100
AcDbEntity
 67
     1
  8
0
  6
Continuous
 62
     7
370
    15
100
AcDbCircle
 10
-5.1325918541
 20
60.9475392745
 30
0.0
 40
1.000000000000017
100
AcDbArc
 50
270.0
 51
0.0
  0
ARC
  5
3E2
330
1B
100
AcDbEntity
 67
     1
  8
0
  6
Continuous
 62
     7
370
    15
100
AcDbCircle
 10
10.8840497476
 20
60.4610425497
 30
0.0
 40
10.00000000000018
100
AcDbArc
 50
3.3059435837
 51
66.7294648351
  0
ARC
  5
3E3
330
1B
100
AcDbEntity
 67
     1
  8
0
  6
Continuous
 62
     7
370
    15
100
AcDbCircle
 10
5.8507665443
 20
60.4610425497
 30
0.0
 40
10.00000000000018
100
AcDbArc
 50
113.2705351649
 51
176.6940564163
  0
ARC
  5
3E4
330
1B
100
AcDbEntity
 67
     1
  8
0
  6
Continuous
 62
     7
370
    15
100
AcDbCircle
 10
-75.0502831543
 20
1371.6878697614
 30
0.0
 40
86.4708158495506
100
AcDbArc
 50
345.2876834928
 51
346.0447763652
  0
ARC
  5
3E5
330
1B
100
AcDbEntity
 67
     1
  8
0
  6
Continuous
 62
     7
370
    15
100
AcDbCircle
 10
-0.5745902621
 20
1315.2270619391
 30
0.0
 40
36.83803599553336
100
AcDbArc
 50
75.1472715577
 51
76.7449004905
  0
ARC
  5
3E6
330
1B
100
AcDbEntity
 67
     1
  8
0
  6
Continuous
 62
     7
370
    15
100
AcDbCircle
 10
-76.0466923058
 20
1371.9372985819
 30
0.0
 40
86.47081585231302
100
AcDbArc
 50
345.2876834928
 51
346.0447763652
  0
ARC
  5
3E7
330
1B
100
AcDbEntity
 67
     1
  8
0
  6
Continuous
 62
     7
370
    15
100
AcDbCircle
 10
7.8568597689
 20
1348.9922893551
 30
0.0
 40
1.020161345579473
100
AcDbArc
 50
105.221178928
 51
133.212439988
  0
ARC
  5
3E8
330
1B
100
AcDbEntity
 67
     1
  8
0
  6
Continuous
 62
     7
370
    15
100
AcDbCircle
 10
13.3435207447
 20
1370.9898950022
 30
0.0
 40
22.13577990863362
100
AcDbArc
 50
250.8389781663
 51
253.7744319038
  0
ARC
  5
3E9
330
1B
100
AcDbEntity
 67
     1
  8
0
  6
Continuous
 62
     7
370
    15
100
AcDbCircle
 10
21.0908193487
 20
1345.4566749679
 30
0.0
 40
15.70869909248779
100
AcDbArc
 50
162.8817809999
 51
166.4848351223
  0
ARC
  5
3EA
330
1B
100
AcDbEntity
 67
     1
  8
0
  6
Continuous
 62
     7
370
    15
100
AcDbCircle
 10
13.082620748
 20
1370.0372956868
 30
0.0
 40
22.13577990833706
100
AcDbArc
 50
250.8389781663
 51
253.7744319038
  0
ARC
  5
3EB
330
1B
100
AcDbEntity
 67
     1
  8
0
  6
Continuous
 62
     7
370
    15
100
AcDbCircle
 10
7.8128549154
 20
1349.0603849714
 30
0.0
 40
0.9564495578188165
100
AcDbArc
 50
196.8461000987
 51
226.0780044873
  0
ARC
  5
3EC
330
1B
100
AcDbEntity
 67
     1
  8
0
  6
Continuous
 62
     7
370
    15
100
AcDbCircle
 10
-48.4759233027
 20
1364.2644321411
 30
0.0
 40
57.85120029939858
100
AcDbArc
 50
343.0646814235
 51
344.0545872946
  0
ARC
  5
3ED
330
1B
100
AcDbEntity
 67
     1
  8
0
  6
Continuous
 62
     7
370
    15
100
AcDbCircle
 10
9.6333631039
 20
1356.3508285483
 30
0.0
 40
9.356443220589677
100
AcDbArc
 50
252.7995271797
 51
259.0926448685
  0
ARC
  5
3EE
330
1B
100
AcDbEntity
 67
     1
  8
0
  6
Continuous
 62
     7
370
    15
100
AcDbCircle
 10
-47.4795141553
 20
1364.0150033217
 30
0.0
 40
57.85120030083324
100
AcDbArc
 50
343.0646814235
 51
344.0545872946
  0
ARC
  5
3EF
330
1B
100
AcDbEntity
 67
     1
  8
0
  6
Continuous
 62
     7
370
    15
100
AcDbCircle
 10
7.877956523
 20
1349.1064135984
 30
0.0
 40
1.02016134558125
100
AcDbArc
 50
285.2211789281
 51
313.212439988
  0
ARC
  5
3F0
330
1B
100
AcDbEntity
 67
     1
  8
0
  6
Continuous
 62
     7
370
    15
100
AcDbCircle
 10
12.7065342091
 20
1368.0282306049
 30
0.0
 40
20.09434502830801
100
AcDbArc
 50
258.1392491355
 51
261.2704185608
  0
ARC
  5
3F1
330
1B
100
AcDbEntity
 67
     1
  8
0
  6
Continuous
 62
     7
370
    15
100
AcDbCircle
 10
-1.2706600862
 20
1351.671527593
 30
0.0
 40
11.47576904724119
100
AcDbArc
 50
342.2169178785
 51
347.1496982437
  0
ARC
  5
3F2
330
1B
100
AcDbEntity
 67
     1
  8
0
  6
Continuous
 62
     7
370
    15
100
AcDbCircle
 10
12.9674342057
 20
1368.9808299205
 30
0.0
 40
20.09434502885342
100
AcDbArc
 50
258.1392491355
 51
261.2704185608
  0
ARC
  5
3F3
330
1B
100
AcDbEntity
 67
     1
  8
0
  6
Continuous
 62
     7
370
    15
100
AcDbCircle
 10
7.9219613765
 20
1349.0383179821
 30
0.0
 40
0.9564495578231667
100
AcDbArc
 50
16.8461000988
 51
46.0780044872
  0
ARC
  5
3F4
330
1B
100
AcDbEntity
 67
     1
  8
0
  6
Continuous
 62
     7
370
    15
100
AcDbCircle
 10
7.8206547786
 20
1349.7221642425
 30
0.0
 40
0.8061510697419259
100
AcDbArc
 50
203.5372029567
 51
219.3869016294
  0
ARC
  5
3F5
330
1B
100
AcDbEntity
 67
     1
  8
0
  6
Continuous
 62
     7
370
    15
100
AcDbCircle
 10
7.8766749015
 20
1349.7613748553
 30
0.0
 40
0.8608116996013305
100
AcDbArc
 50
291.6319419407
 51
306.8016769754
  0
ARC
  5
3F6
330
1B
100
AcDbEntity
 67
     1
  8
0
  6
Continuous
 62
     7
370
    15
100
AcDbCircle
 10
7.8693895676
 20
1349.6177809458
 30
0.0
 40
4.142936724867915
100
AcDbArc
 50
60.5932649865
 51
128.4607245467
  0
ARC
  5
3F7
330
1B
100
AcDbEntity
 67
     1
  8
0
  6
Continuous
 62
     7
370
    15
100
AcDbCircle
 10
7.8684545223
 20
1349.6539091847
 30
0.0
 40
0.8725312023994958
100
AcDbArc
 50
39.9625679104
 51
99.2258689349
  0
ARC
  5
3F8
330
1B
100
AcDbEntity
 67
     1
  8
0
  6
Continuous
 62
     7
370
    15
100
AcDbCircle
 10
7.7979394293
 20
1349.7126044306
 30
0.0
 40
0.7815080179719719
100
AcDbArc
 50
175.2840720117
 51
203.5596960877
  0
ARC
  5
3F9
330
1B
100
AcDbEntity
 67
     1
  8
0
  6
Continuous
 62
     7
370
    15
100
AcDbCircle
 10
7.9133216774
 20
1349.7203567664
 30
0.0
 40
0.8060289308545715
100
AcDbArc
 50
306.4624751086
 51
350.2320283962
  0
ARC
  5
3FA
330
1B
100
AcDbEntity
 67
     1
  8
0
  6
Continuous
 62
     7
370
    15
100
AcDbCircle
 10
7.8678267656
 20
1349.7731002517
 30
0.0
 40
0.8749817940603959
100
AcDbArc
 50
220.004685545
 51
291.8874865032
  0
VIEWPORT
  5
5D1
330
1B
100
AcDbEntity
 67
     1
  8
0
100
AcDbViewport
 10
0.0
 20
0.0
 30
0.0
 40
205.6
 41
156.0
 68
     1
 69
     1
 12
0.2845061149
 22
625.3951180348
 13
0.0
 23
0.0
 14
10.0
 24
10.0
 15
10.0
 25
10.0
 16
0.0
 26
0.0
 36
1.0
 17
0.0
 27
0.0
 37
0.0
 42
50.0
 43
0.0
 44
0.0
 45
1493.794939329
 50
0.0
 51
0.0
 72
   100
 90
   557152
  1

281
     0
 71
     1
 74
     0
110
0.0
120
0.0
130
0.0
111
1.0
121
0.0
131
0.0
112
0.0
122
1.0
132
0.0
 79
     0
146
0.0
  0
ENDSEC
  0
SECTION
  2
OBJECTS
  0
DICTIONARY
  5
C
330
0
100
AcDbDictionary
281
     1
  3
ACAD_GROUP
350
D
  3
ACAD_LAYOUT
350
1A
  3
ACAD_MLINESTYLE
350
17
  3
ACAD_PLOTSETTINGS
350
19
  3
ACAD_PLOTSTYLENAME
350
E
  3
ACAD_SCALELIST
350
47
  0
DICTIONARY
  5
D
102
{ACAD_REACTORS
330
C
102
}
330
C
100
AcDbDictionary
281
     1
  0
DICTIONARY
  5
1A
102
{ACAD_REACTORS
330
C
102
}
330
C
100
AcDbDictionary
281
     1
  3
_Left
350
1E
  3
_Right
350
26
  3
_Top
350
5A2
  3
Model
350
22
  0
DICTIONARY
  5
17
102
{ACAD_REACTORS
330
C
102
}
330
C
100
AcDbDictionary
281
     1
  3
Standard
350
18
  0
DICTIONARY
  5
19
102
{ACAD_REACTORS
330
C
102
}
330
C
100
AcDbDictionary
281
     1
  0
ACDBDICTIONARYWDFLT
  5
E
102
{ACAD_REACTORS
330
C
102
}
330
C
100
AcDbDictionary
281
     1
  3
Normal
350
F
100
AcDbDictionaryWithDefault
340
F
  0
DICTIONARY
  5
47
102
{ACAD_REACTORS
330
C
102
}
330
C
100
AcDbDictionary
281
     1
  3
A0
350
48
  3
A1
350
49
  3
A2
350
4A
  3
A3
350
4B
  3
A4
350
4C
  3
A5
350
4D
  3
A6
350
4E
  3
A7
350
4F
  3
A8
350
50
  3
A9
350
51
  3
B0
350
52
  3
B1
350
53
  3
B2
350
54
  3
B3
350
55
  3
B4
350
56
  3
B5
350
57
  3
B6
350
58
  3
B7
350
59
  3
B8
350
5A
  3
B9
350
5B
  3
C0
350
5C
  3
C1
350
5D
  3
C2
350
5E
  3
C3
350
5F
  3
C4
350
60
  3
C5
350
61
  3
C6
350
62
  3
C7
350
63
  3
C8
350
64
  3
C9
350
65
  3
D0
350
66
  3
D1
350
67
  3
D2
350
68
  0
LAYOUT
  5
1E
102
{ACAD_REACTORS
330
1A
102
}
330
1A
100
AcDbPlotSettings
  1

  2
none_device
  4
ISO_A4_(210.00_x_297.00_MM)
  6

 40
7.5
 41
20.0
 42
7.5
 43
20.0
 44
210.0
 45
297.0
 46
0.0
 47
0.0
 48
0.0
 49
0.0
140
0.0
141
0.0
142
1.0
143
7.5102812435
 70
   688
 72
     1
 73
     1
 74
     1
  7

 75
     0
147
0.1331508059
148
62.1325918541
149
106.8573032049
100
AcDbLayout
  1
_Left
 70
     1
 71
     1
 10
-212.3382167237
 20
-163.184412531
 11
2018.215312591
 21
1413.9746486007
 12
0.0
 22
0.0
 32
0.0
 14
-62.1325918541
 24
-106.8573032049
 34
0.0
 15
78.8674081459
 25
1357.6475392745
 35
0.0
146
0.0
 13
0.0
 23
0.0
 33
0.0
 16
1.0
 26
0.0
 36
0.0
 17
0.0
 27
1.0
 37
0.0
 76
     0
330
1B
331
5D1
  0
LAYOUT
  5
26
102
{ACAD_REACTORS
330
1A
102
}
330
1A
100
AcDbPlotSettings
  1

  2
none_device
  4
ISO_A4_(210.00_x_297.00_MM)
  6

 40
7.5
 41
20.0
 42
7.5
 43
20.0
 44
210.0
 45
297.0
 46
0.0
 47
0.0
 48
0.0
 49
0.0
140
0.0
141
0.0
142
1.0
143
7.5102812435
 70
   688
 72
     1
 73
     1
 74
     1
  7

 75
     0
147
0.1331508059
148
62.1325918541
149
106.8573032049
100
AcDbLayout
  1
_Right
 70
     1
 71
     2
 10
0.0
 20
0.0
 11
0.0
 21
0.0
 12
0.0
 22
0.0
 32
0.0
 14
0.0
 24
0.0
 34
0.0
 15
0.0
 25
0.0
 35
0.0
146
0.0
 13
0.0
 23
0.0
 33
0.0
 16
1.0
 26
0.0
 36
0.0
 17
0.0
 27
1.0
 37
0.0
 76
     0
330
23
331
5D3
  0
LAYOUT
  5
5A2
102
{ACAD_REACTORS
330
1A
102
}
330
1A
100
AcDbPlotSettings
  1

  2
none_device
  4
ISO_A4_(210.00_x_297.00_MM)
  6

 40
7.5
 41
20.0
 42
7.5
 43
20.0
 44
210.0
 45
297.0
 46
0.0
 47
0.0
 48
0.0
 49
0.0
140
0.0
141
0.0
142
1.0
143
7.5102812435
 70
   688
 72
     1
 73
     1
 74
     1
  7

 75
     0
147
0.1331508059
148
62.1325918541
149
106.8573032049
100
AcDbLayout
  1
_Top
 70
     1
 71
     3
 10
0.0
 20
0.0
 11
0.0
 21
0.0
 12
0.0
 22
0.0
 32
0.0
 14
0.0
 24
0.0
 34
0.0
 15
0.0
 25
0.0
 35
0.0
146
0.0
 13
0.0
 23
0.0
 33
0.0
 16
1.0
 26
0.0
 36
0.0
 17
0.0
 27
1.0
 37
0.0
 76
     0
330
5A1
331
5D5
  0
LAYOUT
  5
22
102
{ACAD_REACTORS
330
1A
102
}
330
1A
100
AcDbPlotSettings
  1

  2
none_device
  4
ANSI_A_(11.00_x_8.50_Inches)
  6

 40
6.35
 41
19.05
 42
6.35000508
 43
19.05000254
 44
279.4
 45
215.9
 46
133.3084744689
 47
-2.3749319132
 48
0.0
 49
0.0
140
0.0
141
0.0
142
0.0057459694
143
1.0
 70
  1696
 72
     0
 73
     0
 74
     0
  7

 75
     0
147
0.0179189148
148
-1300.4909072572
149
0.0
100
AcDbLayout
  1
Model
 70
     1
 71
     0
 10
0.0
 20
0.0
 11
420.0
 21
297.0
 12
0.0
 22
0.0
 32
0.0
 14
-70.2154938851
 24
-106.8573032049
 34
0.0
 15
70.7845061149
 25
1357.6475392745
 35
0.0
146
0.0
 13
0.0
 23
0.0
 33
0.0
 16
1.0
 26
0.0
 36
0.0
 17
0.0
 27
1.0
 37
0.0
 76
     0
330
1F
331
29
  0
MLINESTYLE
  5
18
102
{ACAD_REACTORS
330
17
102
}
330
17
100
AcDbMlineStyle
  2
Standard
 70
     0
  3

 62
   256
 51
90.0
 52
90.0
 71
     2
 49
0.5
 62
   256
  6
BYLAYER
 49
-0.5
 62
   256
  6
BYLAYER
  0
ACDBPLACEHOLDER
  5
F
102
{ACAD_REACTORS
330
E
102
}
330
E
  0
SCALE
  5
48
102
{ACAD_REACTORS
330
47
102
}
330
47
100
AcDbScale
 70
     0
300
1:1
140
1.0
141
1.0
290
     1
  0
SCALE
  5
49
102
{ACAD_REACTORS
330
47
102
}
330
47
100
AcDbScale
 70
     0
300
1:2
140
1.0
141
2.0
290
     0
  0
SCALE
  5
4A
102
{ACAD_REACTORS
330
47
102
}
330
47
100
AcDbScale
 70
     0
300
1:4
140
1.0
141
4.0
290
     0
  0
SCALE
  5
4B
102
{ACAD_REACTORS
330
47
102
}
330
47
100
AcDbScale
 70
     0
300
1:5
140
1.0
141
5.0
290
     0
  0
SCALE
  5
4C
102
{ACAD_REACTORS
330
47
102
}
330
47
100
AcDbScale
 70
     0
300
1:8
140
1.0
141
8.0
290
     0
  0
SCALE
  5
4D
102
{ACAD_REACTORS
330
47
102
}
330
47
100
AcDbScale
 70
     0
300
1:10
140
1.0
141
10.0
290
     0
  0
SCALE
  5
4E
102
{ACAD_REACTORS
330
47
102
}
330
47
100
AcDbScale
 70
     0
300
1:16
140
1.0
141
16.0
290
     0
  0
SCALE
  5
4F
102
{ACAD_REACTORS
330
47
102
}
330
47
100
AcDbScale
 70
     0
300
1:20
140
1.0
141
20.0
290
     0
  0
SCALE
  5
50
102
{ACAD_REACTORS
330
47
102
}
330
47
100
AcDbScale
 70
     0
300
1:30
140
1.0
141
30.0
290
     0
  0
SCALE
  5
51
102
{ACAD_REACTORS
330
47
102
}
330
47
100
AcDbScale
 70
     0
300
1:40
140
1.0
141
40.0
290
     0
  0
SCALE
  5
52
102
{ACAD_REACTORS
330
47
102
}
330
47
100
AcDbScale
 70
     0
300
1:50
140
1.0
141
50.0
290
     0
  0
SCALE
  5
53
102
{ACAD_REACTORS
330
47
102
}
330
47
100
AcDbScale
 70
     0
300
1:100
140
1.0
141
100.0
290
     0
  0
SCALE
  5
54
102
{ACAD_REACTORS
330
47
102
}
330
47
100
AcDbScale
 70
     0
300
2:1
140
2.0
141
1.0
290
     0
  0
SCALE
  5
55
102
{ACAD_REACTORS
330
47
102
}
330
47
100
AcDbScale
 70
     0
300
4:1
140
4.0
141
1.0
290
     0
  0
SCALE
  5
56
102
{ACAD_REACTORS
330
47
102
}
330
47
100
AcDbScale
 70
     0
300
8:1
140
8.0
141
1.0
290
     0
  0
SCALE
  5
57
102
{ACAD_REACTORS
330
47
102
}
330
47
100
AcDbScale
 70
     0
300
10:1
140
10.0
141
1.0
290
     0
  0
SCALE
  5
58
102
{ACAD_REACTORS
330
47
102
}
330
47
100
AcDbScale
 70
     0
300
100:1
140
100.0
141
1.0
290
     0
  0
SCALE
  5
59
102
{ACAD_REACTORS
330
47
102
}
330
47
100
AcDbScale
 70
     0
300
1/128" = 1'-0"
140
0.0078125
141
12.0
290
     0
  0
SCALE
  5
5A
102
{ACAD_REACTORS
330
47
102
}
330
47
100
AcDbScale
 70
     0
300
1/64" = 1'-0"
140
0.015625
141
12.0
290
     0
  0
SCALE
  5
5B
102
{ACAD_REACTORS
330
47
102
}
330
47
100
AcDbScale
 70
     0
300
1/32" = 1'-0"
140
0.03125
141
12.0
290
     0
  0
SCALE
  5
5C
102
{ACAD_REACTORS
330
47
102
}
330
47
100
AcDbScale
 70
     0
300
1/16" = 1'-0"
140
0.0625
141
12.0
290
     0
  0
SCALE
  5
5D
102
{ACAD_REACTORS
330
47
102
}
330
47
100
AcDbScale
 70
     0
300
3/32" = 1'-0"
140
0.09375
141
12.0
290
     0
  0
SCALE
  5
5E
102
{ACAD_REACTORS
330
47
102
}
330
47
100
AcDbScale
 70
     0
300
1/8" = 1'-0"
140
0.125
141
12.0
290
     0
  0
SCALE
  5
5F
102
{ACAD_REACTORS
330
47
102
}
330
47
100
AcDbScale
 70
     0
300
3/16" = 1'-0"
140
0.1875
141
12.0
290
     0
  0
SCALE
  5
60
102
{ACAD_REACTORS
330
47
102
}
330
47
100
AcDbScale
 70
     0
300
1/4" = 1'-0"
140
0.25
141
12.0
290
     0
  0
SCALE
  5
61
102
{ACAD_REACTORS
330
47
102
}
330
47
100
AcDbScale
 70
     0
300
3/8" = 1'-0"
140
0.375
141
12.0
290
     0
  0
SCALE
  5
62
102
{ACAD_REACTORS
330
47
102
}
330
47
100
AcDbScale
 70
     0
300
1/2" = 1'-0"
140
0.5
141
12.0
290
     0
  0
SCALE
  5
63
102
{ACAD_REACTORS
330
47
102
}
330
47
100
AcDbScale
 70
     0
300
3/4" = 1'-0"
140
0.75
141
12.0
290
     0
  0
SCALE
  5
64
102
{ACAD_REACTORS
330
47
102
}
330
47
100
AcDbScale
 70
     0
300
1" = 1'-0"
140
1.0
141
12.0
290
     0
  0
SCALE
  5
65
102
{ACAD_REACTORS
330
47
102
}
330
47
100
AcDbScale
 70
     0
300
1-1/2" = 1'-0"
140
1.5
141
12.0
290
     0
  0
SCALE
  5
66
102
{ACAD_REACTORS
330
47
102
}
330
47
100
AcDbScale
 70
     0
300
3" = 1'-0"
140
3.0
141
12.0
290
     0
  0
SCALE
  5
67
102
{ACAD_REACTORS
330
47
102
}
330
47
100
AcDbScale
 70
     0
300
6" = 1'-0"
140
6.0
141
12.0
290
     0
  0
SCALE
  5
68
102
{ACAD_REACTORS
330
47
102
}
330
47
100
AcDbScale
 70
     0
300
1'-0" = 1'-0"
140
12.0
141
12.0
290
     0
  0
ENDSEC
  0
EOF
